Rammstein - Ich Will Chords & Tabs

 

Ich Will Chords & Tabs

Rammstein Chords & Tabs

Version: 3 Type: Bass Tab 0 ratings
1 star 2 stars 3 stars 4 stars 5 stars
comments

Ich Will Bass Tab

Song: Ich Will
Artist:Rammstein
Tabbed by Steven Warner
Drop D tuning
Till if you are reading this this is correct!

Verse
G|---------------
D|---------------
A|-5-5---5---5---5
D|0-0-0---0-0-0-0-0

G|---------------
D|---------------
A|-5-5---5---5---5
D|0-0-0---0-0-0-0-0

G|---------------
D|---------------
A|-5-5---5---5---5
D|0-0-0---0-0-0-0-0
[ Tab from: http://www.guitartabs.cc/tabs/r/rammstein/ich_will_btab_ver_3.html ]
G|----------------------
D|-------5-5-5----------
A|-5-5---------8-8-8-7-5
D|0-0-0-----------------

Chorus
G|--------------------------
D|-----------5-5-5----------
A|5-5-5-5-5--------8-8-8-7-5
D|--------------------------

G|----------------5-5-5-3
D|----------5-5-5--------
A|5-5-5-5-5--------------
D|-----------------------
This tab is correct play it with the song and you will see.
And Till, it is correct just use more than one string. It's easier.
Comments