Rammstein - Hilf Mir Chords & Tabs

 

Hilf Mir Chords & Tabs

Rammstein Chords & Tabs

Version: 4 Type: Tab

Hilf Mir Tab

   
-------------------------------------------------------------------------------
			     HILF MIR - Rammstein
-------------------------------------------------------------------------------
Tabbed by: slyo
Email: sly at davidhurst dot net

Gtr  I - (C G C F A D)
Gtr II - (C G C F A D)

[Intro]
Gtr I & II
D||----------------------------------||
A||---------------------------------o||
F||----------------------------------||
C||----------------------------------||
G||-<4>-<4>-<4>-<4>-<4>-<4>-<4>-<4>-o||
C||-<4>-<4>-<4>-<4>-<4>-<4>-<4>-<4>--||

[Intro]
Gtr I & II
D||---------------------------------|-------------------------------|
A||---------------------------------|-------------------------------|
F||---------------------------------|-------------------------------|
C||-4-4-4-4-7-7-------0-0-0-0-3-3-3-|-4-4-4-4-7-7-------7-7-7-7-6-6-|
G||-4-4-4-4-4-4-------0-0-0-0-3-3-3-|-4-4-4-4-4-4-------5-5-5-5-4-4-|
C||-4-4-4-4-4-4-------0-0-0-0-3-3-3-|-4-4-4-4-4-4-------0-0-0-0-3-3-|

[Intro]
Gtr I & II
D|---------------------------------|----------------------------------------||
A|---------------------------------|----------------------------------------||
F|---------------------------------|----------------------------------------||
C|-4-4-4-4-7-7-------0-0-0-0-3-3-3-|-4-4-4-4-7-7-----------<5>-----3-----4--||
C|-4-4-4-4-4-4-------0-0-0-0-3-3-3-|-4-4-4-4-4-4---------<5>-<5>---3-----4--||
G|-4-4-4-4-4-4-------0-0-0-0-3-3-3-|-4-4-4-4-4-4-------<5>-----<5>-3-----4--||
                                                       lr_________________|
[Chorus] 
    Gtr I
D||-----------------------------------------------------------------------||
A||o---------------------------------------------------------------------o||
F||-----------------------------------------------------------------------||
C||-----------------------------------------7-7-7-7-7-7----2-2-2-2-2-2-2--||
G||o-9-9-9-9-9-9-------11-11-11-11-11-11-11-5-5-5-5-5-5----2-2-2-2-2-2-2-o||
C||--9-9-9-9-9-9-------11-11-11-11-11-11-11-0-0-0-0-0-0----2-2-2-2-2-2-2--||
 ||
 || Gtr II
D||-------------------------------------------------------------------------||
A||o-----------------------------------------------------------------------o||
F||-------------------------------------------------------------------------||
C||--------12----------------11-------------------9-------------------------||
G||o-9----------9---7-----------------7-----5-----------5---4-----2-----0--o||
C||-------------------------------------------------------------------------||
     tr__________________________________________________________________|

[Verse]
Gtr I & II
D||---------------------------------|-----------------------------------||
A||---------------------------------|-----------------------------------||
F||---------------------------------|-----------------------------------||
C||-4-4-4-4-7-7-------0-0-0-0-3-3-3-|-4-4-4-4-7-7-----------<5>-----3---||
C||-4-4-4-4-4-4-------0-0-0-0-3-3-3-|-4-4-4-4-4-4---------<5>-<5>---3---||
G||-4-4-4-4-4-4-------0-0-0-0-3-3-3-|-4-4-4-4-4-4-------<5>-----<5>-3---||
                                                        lr_____________|
[Verse]
    Gtr I
D||-----------------------------------||
A||o---------------------------------o||
F||-----------------------------------||
C||--4-4-4-4-7-7----------------------||x4
G||o-4-4-4-4-4-4---------------------o||
C||--4-4-4-4-4-4----------------------||
 ||
 || Gtr II
D||-----------------------------------||
A||o---------------------------------o||
F||--11~-----------------------5~-----||
C||---x------------------------x------||x4
G||o--9~-----------------------3~----o||
C||-----------------------------------||
[ Tab from: http://www.guitartabs.cc/tabs/r/rammstein/hilf_mir_tab_ver_4.html ]
[Chorus] 
    Gtr I
D||-----------------------------------------------------------------------||
A||o---------------------------------------------------------------------o||
F||-----------------------------------------------------------------------||
C||-----------------------------------------7-7-7-7-7-7----2-2-2-2-2-2-2--||
G||o-9-9-9-9-9-9-------11-11-11-11-11-11-11-5-5-5-5-5-5----2-2-2-2-2-2-2-o||
C||--9-9-9-9-9-9-------11-11-11-11-11-11-11-0-0-0-0-0-0----2-2-2-2-2-2-2--||
 ||
 || Gtr II
D||-------------------------------------------------------------------------||
A||o-----------------------------------------------------------------------o||
F||-------------------------------------------------------------------------||
C||--------12----------------11-------------------9-------------------------||
G||o-9----------9---7-----------------7-----5-----------5---4-----2-----0--o||
C||-------------------------------------------------------------------------||
     tr__________________________________________________________________|

[Pre-Bridge]
Gtr I
D||-------------------||
A||-------------------||
F||-------------------||
C||-------------------||
G||--2-2-2-2-2-2-2-2--||
C||--2-2-2-2-2-2-2-2--||
     . . . . . . . .


[Bridge]
Gtr I & II
D||-----------------||
A||o---------------o||
F||-----------------||
C||--4-/9---0---11--||x4
G||o-4-/9---0---11-o||
C||--4-/9---0---11--||


[Extro]
   Gtr I
D||-----------------------------------||
A||o---------------------------------o||
F||-----------------------------------||
C||--4-4-4-4-4-4-4-4-4-4-4-4-4-3-3-3--||x3
G||o-4-4-4-4-4-4-4-4-4-4-4-4-4-3-3-3-o||
C||--4-4-4-4-4-4-4-4-4-4-4-4-4-3-3-3--||
 ||
 || Gtr II
D||--------------------------------------------------||
A||-------------------------------------------------o||
F||-11-11-11-11-11-11-11-11-11-11-11-11-11-11-11-11--||
C||--x--x--x--x--x--x--x--x--x--x--x--x--x--x--x--x--||x3
G||--9--9--9--9--9--9--9--9--9--9--9--9--9--9--9--9-o||
C||--------------------------------------------------| |

[Extro]
    Gtr I
D||------------------------------------||
A||------------------------------------||
F||------------------------------------||
C||-4-4-4-4-4-4-4-4-0-0-0-0-0-11-11-11-||
G||-4-4-4-4-4-4-4-4-0-0-0-0-0-11-11-11-||
C||-4-4-4-4-4-4-4-4-0-0-0-0-0-11-11-11-||
 ||
 || Gtr II
D||-------------------------------------------------||
A||-------------------------12-12-12-12-12-10-10-10-||
F||-11-11-11-11-11-11-11-11--x--x--x--x--x--x--x--x-||
C||--x--x--x--x--x--x--x--x--9--9--9--9--9--7--7--7-||
G||--9--9--9--9--9--9--9--9-------------------------||
C||-------------------------------------------------||

[Extro]
   Gtr I
D||-----------------------------------||
A||o---------------------------------o||
F||-----------------------------------||
C||--4-4-4-4-4-4-4-4-4-4-4-4-4-3-3-3--||x3
G||o-4-4-4-4-4-4-4-4-4-4-4-4-4-3-3-3-o||
C||--4-4-4-4-4-4-4-4-4-4-4-4-4-3-3-3--||
 ||
 || Gtr II
D||--------------------------------------------------||
A||-------------------------------------------------o||
F||-11-11-11-11-11-11-11-11-11-11-11-11-11-11-11-11--||
C||--x--x--x--x--x--x--x--x--x--x--x--x--x--x--x--x--||x3
G||--9--9--9--9--9--9--9--9--9--9--9--9--9--9--9--9-o||
C||--------------------------------------------------| |

[Extro]
    Gtr I
D||------------------------------------||
A||------------------------------------||
F||------------------------------------||
C||-4-4-4-4-4-4-4-4-0-0-0-0-0-11-11-11-||
G||-4-4-4-4-4-4-4-4-0-0-0-0-0-11-11-11-||
C||-4-4-4-4-4-4-4-4-0-0-0-0-0-11-11-11-||
 ||
 || Gtr II
D||-------------------------------------------------||
A||-------------------------12-12-12-12-12-10-10-10-||
F||-11-11-11-11-11-11-11-11--x--x--x--x--x--x--x--x-||
C||--x--x--x--x--x--x--x--x--9--9--9--9--9--7--7--7-||
G||--9--9--9--9--9--9--9--9-------------------------||
C||-------------------------------------------------||


[Ending]
Gtr I & II
D||---------------||
A||o-------------o||
F||---------------||
C||--4-4-4-4-7-7--||x4
G||o-4-4-4-4-4-4-o||
C||--4-4-4-4-4-4--||

/   slide up
\   slide up
 natural harmonic
x   muted noted
~   vibrato
tr  tremolo picking
lr  let ring
.   palm mute