Rammstein - Herzeleid Chords & Tabs

 

Herzeleid Chords & Tabs

Rammstein Chords & Tabs

Version: 3 Type: Bass Tab 0 ratings
1 star 2 stars 3 stars 4 stars 5 stars
comments

Herzeleid Bass Tab

Band: Rammstein
Song: Herzeleid
Instrument: Bass
Tabbed By: Daniel Ash

The other tabs didn't sound too exact to me so I tried to tab it on my own.

I recommended finger picking song (index and middle finger)

Tuning: Regular (EADG)

Verse

G|---------------------------------------------------------------------------|
D|---------------------------------------------------------------------------|
A|---------------------------------------------------------------------------|
E|-0-0-0-0-2-2-0-------------------------------------------------------------|

I recommend plucking first 0 and third 0 and both 2s with index, and second and fourth 
the last 0 with middle finger for

an accurate sound

The below way could also be used to play the verse, (although I prefer the above method):

G|---------------------------------------------------------------------------|
D|---------------------------------------------------------------------------|
A|---------------------------------------------------------------------------|
E|-0-0-0-0-3-3-2-------------------------------------------------------------|

Second part of Verse
[ Tab from: http://www.guitartabs.cc/tabs/r/rammstein/herzeleid_btab_ver_3.html ]
G|---------------------------------------------------------------------------|
D|---------------------------------------------------------------------------|
A|---------------------------------------------------------------------------|
E|-2-2-2-2-3-3-2-------------------------------------------------------------|

This is played when Till doesn't sing and the verse gets heavier

First part of Chorus:

G|---------------------------------------------------------------------------|
D|---------------------------------------------------------------------------|
A|---------------------------------------------------------------------------|
E|-0~-----3~-----2~----------------------------------------------------------|

This is the first part of the chorus when Till starts singing Herzeleid.

G|---------------------------------------------------------------------------|
D|---------------------------------------------------------------------------|
A|---------------------------------------------------------------------------|
E|-0-0-0-0-3-3-2-------------------------------------------------------------|

This is the second part of the chorus when Till screams Herzeleid.

 - - - - - - - - - - -

| /  slide up
| \  slide down
| ~  hold note
Comments