Rammstein - Heirate Mich Chords & Tabs

 

Heirate Mich Chords & Tabs

Rammstein Chords & Tabs

Version: 5 Type: Tab

Heirate Mich Tab

   
-------------------------------------------------------------------------
	      Heirate Mich - Rammstein (Album: Herzeleid)
-------------------------------------------------------------------------
Tabbed by: Nuums aka. Oscar
Email: nuums_41@hotmail.com

Tuning: Drop D (e B G D A D)


Main riff:
                                       3x
e|---------------------------------------|--------------------||
B|---------------------------------------|--------------------||
B|*-------------------------------------*|--------------------||
D|*-2---2--2---2--2---2--5\4-\-2-/-4/5--*|--2--2--2---2--2-2--||
A|--2---2--2---2--2---2--5\4-\-2-/-4/5---|--2--2--2---2--2-2--||
D|--2---2--2---2--2---2--5\4-\-2-/-4/5---|--2--2--2---2--2-2--||
    .   .  .   .  .   .                     .  .  .   .  . 

Verse:
                           3x
e|---------------------------|------||
B|---------------------------|------||
G|*-------------------------*|------||
D|*-9---9--9---10-\-7-/-(9)-*|--9*--||
A|--9---9--9---10-\-7-/-(9)--|--9*--||
D|--9---9--9---10-\-7-/-(9)--|--9*--||
    *   .  . 
 
                              3x 
e|------------------------------|-------||
B|------------------------------|-------||
G|------------------------------|-------||
D|--11---11--11---12-\-9-/-(11)-|--10*--||
A|--11---11--11---12-\-9-/-(11)-|--10*--||
D|--11---11--11---12-\-9-/-(11)-|--10*--||
     *    .   . 


Solo:

e|--------------------------------------------------------------|
B|--------------------------------------------------------------|
G|---4/9*--7*--6*--6h7p6-------------------6h7p6*---------------|
D|-----------------------7*------------7-9-------9h7p9*---------|
A|---------------------------7-9-10-9---------------------------|
D|--------------------------------------------------------------|

e|-----------9-9*b--12-11-9----9--------------------------------|
B|---9--12p9---------------12-----------------------------------|
G|--------------------------------------13----13----13----13----|
D|--------------------------------11*b-----11----11----11----11-|
A|--------------------------------------------------------------|
D|--------------------------------------------------------------|
[ Tab from: http://www.guitartabs.cc/tabs/r/rammstein/heirate_mich_tab_ver_5.html ]
e|--------------------------------------------------------------|
B|---14-13--13h14--13-------------------------------------------|
G|--------------------13h14--13-13h14--13*-/-16*----------------|
D|--------------------------------------------------------------|
A|--------------------------------------------------------------|
D|--------------------------------------------------------------|


Rythm in background when solo is played:
(Starts off when solo hits the 9th band on g)
                                            3x
e|--------------------------------------------|----------------||
B|--------------------------------------------|----------------||
G|*------------------------------------------*|----------------||
D|*-2---2--2---2--2---2---2--2---3-\-0-/-(2)-*|-2--2-2--2-2--2-||
A|--2---2--2---2--2---2---2--2---3-\-0-/-(2)--|-2--2-2--2-2--2-||
D|--2---2--2---2--2---2---2--2---3-\-0-/-(2)--|-2--2-2--2-2--2-||
    .   .  .   .  .   .   .                     .  . .  . .
                                               
                                             
                                        4x
e|----------------------------------------|
B|----------------------------------------|
G|*--------------------------------------*| 
D|*-4---4--4---4--4---4---4--4---5-\-2-/-*|
A|--4---4--4---4--4---4---4--4---5-\-2-/--|
D|--4---4--4---4--4---4---4--4---5-\-2-/--|
    .   .  .   .  .   .   .                


Tab Key

. = Palm Mute
/ = Slide up
\ = Slide down
* = Let ring
h = Hammer on
p = Pull off
B = Bend

Order:

Mann sieht ihn um die Kirche schleichen
seit einem Jahr ist er allein
Die Trauer nahm ihm alle Sinne
schlaft jede Nacht bei ihrem Stein 

Main riff [0:44-1:24]

Dort bei den Glocken schlaft ein Stein
und ich alleine kann ihn lesen
und auf dem Zaun der rote Hahn
ist seiner Zeit dein Herz gewesen 

Die Furcht auf diesen Zaun gespiesst
geh ich nun graben jede Nacht
zu sehen was noch ubrig ist
von dem Gesicht das mir gelacht 

Verse [1:48-2:07]

Dort bei den Glocken verbring ich die Nacht
dort zwischen Schnecken ein einsames Tier
tagsuber lauf ich der Nacht hinterher
zum zweitenmal entkommst du mir 

Main riff [2:08-2:27]

Heirate mich 

Mit meinen Handen grab ich tief
zu finden was ich so vermisst
und als der Mond im schonsten Kleid
hab deinen kalten Mund gekusst 

Ich nehm dich zartlich in den Arm
doch deine Haut reisst wie Papier
und Teile fallen von dir ab
zum zweitenmal entkommst du mir 

Verse [2:51-3:10]

Dort bei den Glocken verbring ich die Nacht
dort zwischen Schnecken ein einsames Tier
tagsuber lauf ich der Nacht hinterher
zum zweitenmal entkommst du mir 

Main riff [3:11-3:30]

Heirate mich 

Solo [3:30-3:54]
Rythm [3:32-3:51]

Main riff [3:52-4:11]

Heirate mich

So nehm ich was noch ubrig ist
die Nacht ist heiss und wir sind nackt
zum Fluch der Hahn den Morgen grusst
ich hab den Kopf ihm abgehackt