Rammstein - Heirate Mich Chords & Tabs

 

Heirate Mich Chords & Tabs

Rammstein Chords & Tabs

Version: 3 Type: Tab 0 ratings
1 star 2 stars 3 stars 4 stars 5 stars
comments

Heirate Mich Tab

This is the correct tab for the Heirate Mich solo. I've read and played all the others
and they're wrong. This one is correct.

e|--------||---------------------------------------------------------------------------|
B|--0^/7--||---------------------------------------------------------------------------|
G|--2^/9--||--9^~---7^~---6~---6h7p6---------------------------------------------------|
D|--------||-------------------------7^~--------------------------9-11-12-11~----------|
A|--------||--------------------------------7-9------9-11-9-11-12---------------7~-9~--|
E|--------||------------------------------7-----9/10-----------------------------------|
pm                                        . . .      .  . .  .  . .
[ Tab from: http://www.guitartabs.cc/tabs/r/rammstein/heirate_mich_tab_ver_3.html ]
e|------------------------------12--11-9----9--------------------------------------|
B|--9-12-9-12b14-12^b14~r12p9------------12---------9-------9-------9-------9------|
G|---------------------------------------------------------------------------------|
D|--------------------------------------------11~-----11~-----11~-----11~-----11~--|
A|---------------------------------------------------------------------------------|
E|---------------------------------------------------------------------------------|

e|-------------------------------------------------------|
B|--14~-13b14r13h14p13----13-----------------------------|
G|---------------------14----14p13-14-13~---13^b16~-(f)--|
D|-------------------------------------------------------|
A|-------------------------------------------------------|
E|-------------------------------------------------------|
Comments