Rammstein - Heirate Mich Chords & Tabs

 

Heirate Mich Chords & Tabs

Rammstein Chords & Tabs

Version: 2 Type: Tab 0 ratings
1 star 2 stars 3 stars 4 stars 5 stars
comments

Heirate Mich Tab

Song: Heirate Mich solo
Artist: Rammstein
Album: Herzeleid
Tabbed by: Cary Nightingale (phxcdnightingale@hotmail.com)

I found this awhile back someplace on the internet, but I haven't
found it recently, so here it is.

Standard tuning (EADGBE low to high)

E-5*-------------------------------------------------------|
B-----7*---------------------------------------------------|
G----------6^^7^6--6h7p6-----------------------6-7-6^^-----|
D------------------------7-----------------7-9---------7-9-|
A--------------------------7-9-7-10-9-9-10-----------------|
E----------------------------------------------------------|
                          pm.................
[ Tab from: http://www.guitartabs.cc/tabs/r/rammstein/heirate_mich_tab_ver_2.html ]
E----------12-11-9----9---------------------------------|
B-9-12p9-12--------12-----------------------------------|
G-----------------------11---13-------13-------13-------|
D-------------------------------11-11----11-11----11-11-|
A-------------------------------------------------------|
E-------------------------------------------------------|

E-------------------------------------------|
B-14-13h14-12h14-14p12----------------------|
G----------------------13-13h14p13-13s16~~~-|
D-------------------------------------------|
A-------------------------------------------|
E-------------------------------------------|

Well, listen to the song for timing.
Symbols:
* means natural harmonics
h means hammer-on
p means pull-off
s means slide
~ means vibrato and hold
^ means bend
^^ means bend slowly
Comments