Rammstein - Feuer Frei Chords & Tabs

 

Feuer Frei Chords & Tabs

Rammstein Chords & Tabs

Version: 2 Type: Tab 0 ratings
1 star 2 stars 3 stars 4 stars 5 stars
comments

Feuer Frei Tab

Tab For Rammstein - Feuer Frei (From The 'XXX' Movie)
by Phillip Kreth

Tuning:DADGBe

This is the complete song minus the cool sounding synth stuff 


Intro Chord:

D:----8----(pitch goes down)|
A:----8---------------------|
D:----8---------------------|

The softer part:

intro and verses

e:-------------------------------------|
B:-------------------------------------|
G:-----------(palm muted)-------------.| x8
D:------------------------------------.|
A:-------------------------------------|
D:----5-6--5-6--5-6-5-6-8-8-8----------|

The louder part:

The Chorus
[ Tab from: http://www.guitartabs.cc/tabs/r/rammstein/feuer_frei_tab_ver_2.html ]
'bang bang and feuer frei'

e:-------------------------------------|
B:-------------------------------------|
G:------------------------------------.|
D:----5-6--5-6--5-6-5-6-8-8-8---------.|
A:----5-6--5-6--5-6-5-6-8-8-8----------|
D:----5-6--5-6--5-6-5-6-8-8-8----------|


The part after they yell bang bang twice goes like this:

You have to listen to see when this part comes

e:----------------------------------|
B:----------------------------------|
G:----------------------------------|
D:----8---6---5--------8---6---5----|
A:----8---6---5--------8---6---5----|
D:----8---6---5--------8---6---5----|
Comments