Rammstein - Feuer Frei Chords & Tabs

 

Feuer Frei Chords & Tabs

Rammstein Chords & Tabs

Version: 11 Type: Tab 0 ratings
1 star 2 stars 3 stars 4 stars 5 stars
comments

Feuer Frei Tab

This song is played in Drop-D

Intro
----
----
-3--  ~let it ring~
-3--
-1--
----
pre-chours
-------------------------|
-------------------------|
-------------------------|  x8
-5h6-5h6-5h6-5h6-888-9---|
-------------------------|
-------------------------|
chours
-------------------------|
-------------------------|
-------------------------|
-5h6-5h6-5h6-5h6-888-9---|  x8
-5h6-5h6-5h6-5h6-888-9---|
-5h6-5h6-5h6-5h6-888-9---|
verse
------|
------|
------|
-888-9  x3
-888-9
-888-9
chours
--------------------------------------------------------|
--------------------------------------------------------|
-------------------------------------------------7-5-3--|
-5h6-5h6-5h6-5h6-888-9---5h6-5h6-5h6-5h6-888-9---7-5-3--|
-5h6-5h6-5h6-5h6-888-9---5h6-5h6-5h6-5h6-888-9---5-3-1--|
-5h6-5h6-5h6-5h6-888-9---5h6-5h6-5h6-5h6-888-9----------|

----------------------         ----------|
----------------------         ----------|
----------------------  x3     ----7-5-3-|
-5h6-5h6-5h6-5h6-888-9         ----7-5-3-|
-5h6-5h6-5h6-5h6-888-9         ----5-3-1-|
-5h6-5h6-5h6-5h6-888-9         ----------|

during the piano solo play this 5x, then at the end of the solo-stop playing
-----------------------|
-----------------------|
-----------------------|
-5h6-5h6-5h6-5h6-888-9-|
-5h6-5h6-5h6-5h6-888-9-|
-5h6-5h6-5h6-5h6-888-9-|
[ Tab from: http://www.guitartabs.cc/tabs/r/rammstein/feuer_frei_tab_ver_11.html ]
after the solo play this 4x
-----------------------|
-----------------------|
-----------------------|
-5h6-5h6-5h6-5h6-888-9-|
-----------------------|
-----------------------|
then after the 4th time play this 3x
-----------------------|
-----------------------|
-----------------------|
-5h6-5h6-5h6-5h6-888-9-|
-----------------888-9-|
-----------------888-9-|
then twords the end play
--------------------------------------------------------|
--------------------------------------------------------|
-------------------------------------------------7-5-3--|
-5h6-5h6-5h6-5h6-888-9---5h6-5h6-5h6-5h6-888-9---7-5-3--|
-5h6-5h6-5h6-5h6-888-9---5h6-5h6-5h6-5h6-888-9---5-3-1--|
-5h6-5h6-5h6-5h6-888-9---5h6-5h6-5h6-5h6-888-9----------|

-------------------------|
-------------------------|
-------------------------|
-5h6-5h6-5h6-5h6-888-9---|  x3
-5h6-5h6-5h6-5h6-888-9---|
-5h6-5h6-5h6-5h6-888-9---|

-------|
-------|
-------|
-7-5-3-|
-7-5-3-|
-5-3-1-|
-------|

-------------------------|
-------------------------|
-------------------------|
-5h6-5h6-5h6-5h6-888-9---|  x3
-5h6-5h6-5h6-5h6-888-9---|
-5h6-5h6-5h6-5h6-888-9---|

-------|
-------|
-------|
-7-5-3-|  x3
-7-5-3-|
-5-3-1-|
-------|
Feuer Frie...Bang Bang! the end


well thats about how it goes-im pretty sure thats how it goes but if not then please get 
me ok ~thanx~
Comments