Rammstein - Feuer Frei Chords & Tabs

 

Feuer Frei Chords & Tabs

Rammstein Chords & Tabs

Version: 1 Type: Tab 2 ratings
1 star 2 stars 3 stars 4 stars 5 stars
comments

Feuer Frei Tab

Artist:     Rammstein
Song title: Feuer Frei

This is the complete song minus the cool sounding synth stuff 

Intro Chord:

   after four bars

D:----4---(pitch goes down)|
A:----4--------------------|
D:----4--------------------|

The softer part:

intro only

e:-----------------------------------|
B:-----------------------------------|
G:---------(palm muted)-------------.| x8
D:----------------------------------.|
A:-----------------------------------|
D:---4-5-4-5-4-5-4-5-7-7-------------|

The louder part:

'bang bang and feuer frei'
[ Tab from: http://www.guitartabs.cc/tabs/r/rammstein/feuer_frei_tab.html ]
e:-----------------------------------|
B:-----------------------------------|
G:----------------------------------.|
D:----4-5-4-5-4-5-4-5-7-7-----------.|
A:----4-5-4-5-4-5-4-5-7-7------------|
D:----4-5-4-5-4-5-4-5-7-7------------|


The part after they yell bang bang twice goes like this:

e:----------------------------------|
B:----------------------------------|
G:----------------------------------|
D:----11---10---7------11---10---7--|
A:----11---10---7------11---10---7--|
D:----11---10---7------11---10---7--|

PS. This is basicly the same as the TAB already in the Data base
    except for one important thing. It actually sounds like the song.
:)
Comments