Rammstein - Engel Chords & Tabs

 

Engel Chords & Tabs

Rammstein Chords & Tabs

Version: 2 Type: Bass Tab 0 ratings
1 star 2 stars 3 stars 4 stars 5 stars
comments

Engel Bass Tab

Song: Engel
Band: Rammstein
Album: Sehnsucht
Tabbed by: LifeBandit
E-mail: LifeBandit@Uboot.com

Correction to the one tabbed by Steugen which is a correction to 
the one tabbed by Paul Gaita

I found this one on Talkbass by a guy who said that he had found it 
wrong and retabbed it himself. Problem is he tabbed it wrong as well.
He gave me a starting point though so credit where it`s due.
This is Engel tabbed perfectly as far as i`m concerned. 
Any criticism or praise (HA) e-mail me... 


PART 1:
G-----------------------------
D-----------------------------
A--3h5--6\5--3h5-3h5--6\5-----
E-----------------------------

G-----------------------------
D--------------------3333-----
A--3h5--6\5--3h5-3h5----------
E-----------------------------
[ Tab from: http://www.guitartabs.cc/tabs/r/rammstein/engel_btab_ver_2.html ]
PART 2:
G-----------------------------
D-----------------------------
A--3h5--6\5--3h5-3h5--6\5-----
E-----------------------------   (3x)

G-----------------------------
D--------------------3333-----
A--3h5--6\5--3h5-3h5----------
E-----------------------------

Intro:
-PART 1 (2x)
-PART 2 (2x)

Verse:
-PART 1 (4x) 	

Chorus:
-PART 2 (2x)

Bridge #1:
-PART 2 (2x)
then 			
G-----------------------------
D-----------------------------
A--3h5--6\5--3h5-3h5--6\5-----
E----------------------------- once

Verse
Chorus

Bridge #2: 					play four times (guitar drops after 2x)
-PART 2 (4x)

Instrumental chorus (rest)
Bridge #2 
-----------------------------------------------------------------------
  

"Practice makes perfect, but nobody`s perfect, so why bother practicing?"
-Billie Joe Armstrong
-Green Day

Comments