Rammstein - Eifersucht Chords & Tabs

 

Eifersucht Chords & Tabs

Rammstein Chords & Tabs

Version: 2 Type: Tab

Eifersucht Tab

Intro  
E|---------------------------------|  
B|---------------------------------|  
G|*-------------------------------*|  
D|*-----------------------------5-*|x8  
A|--2---2---2-2-2---2---2-3-4---5--|  
D|--2---2---2-2-2---2---2-3-4---5--|  
pm  .   .   . . .   .   . . .  


Verse  
E|---------------------------------|   |---------------------------------------|  
B|---------------------------------|   |---------------------------------------|  
G|*-------------------------------*|   |---------------------------------------|  
D|*-----------------------------5-*|x8 |--0----------2---3---0----------2---3--|  
A|--2---2---2-2-2---2---2-3-4---5--|   |--0------0---2---3---0----------2---3--|  
D|--2---2---2-2-2---2---2-3-4---5--|   |--0------0---2---3---0------0-0-2---3--|  
pm  .   .   . . .   .   . . .                                       . .  

[ Tab from: http://www.guitartabs.cc/tabs/r/rammstein/eifersucht_tab_ver_2.html ]
1st verse break only!  
1st guitar  
E|---------------------------------------------------|  
B|---------------------------------------------------|  
G|---------------------------------------------------|  
D|------0-----------2---3---0-------2---3------10\2--|  
A|------0-------0-0-2---3---0-------2---3------10\2--|  
D|--0---0-------0-0-2---3---0---0---2---3------10\2--|  
pm  .                           .  


2nd guitar  
E|---------------------------------------------------|  
B|---------------------------------------------------|  
G|---------------------------------------------------|  
D|------3---0-------2---3---0-------2---3------10\2--|  
A|------3---0---0-0-2---3---0-------2---3------10\2--|  
D|--0---3---0---0-0-2---3---0---0---2---3------10\2--|  
pm  .                           .  


Breaks in all other verses  
Both guitars  
E|---------------------------------------------------|  
B|---------------------------------------------------|  
G|---------------------------------------------------|  
D|------0-----------2---3---0-------2---3------10\2--|  
A|------0-------0-0-2---3---0-------2---3------10\2--|  
D|--0---0-------0-0-2---3---0---0---2---3------10\2--|  
pm  .                           .