Rammstein - Du Riechst So Gut Chords & Tabs

 

Du Riechst So Gut Chords & Tabs

Rammstein Chords & Tabs

Version: 2 Type: Tab 0 ratings
1 star 2 stars 3 stars 4 stars 5 stars
comments

Du Riechst So Gut Tab

   
Du riechst so gut
Rammstein, herzeleid
comments: yo_ro@hotmail.com

i dont think they really play the guitar untill the chorus, but when youre playing the
song by yourself, it sounds better when you play the intro along with the bass and
keyboard. 

im not sure the muting in the chorus is right, i havent been able to test it, cause
i broke my wrist. its a great song, have fun.

-intro (16x)(palm mute):
e|-------------------------------|
B|-------------------------------|
G|-------------------------------| 
D|0-1-0-1-----0-1-1-0-1-------0--|
A|0-1-0-1-----0-1-1-0-1-------0--|
D|0-1-0-1-----0-1-1-0-1-------0--|
  ^   ^   ^   ^   ^   ^   ^   ^

-(silence). Der Wahnsinn!

-verse 1 (no guitar):
ist nur eine schmale Brücke.
Die Ufer sind vernuft und trieb.
Ich steig dir nach, das Sonnelicht den geist verwirrt.
Ein blindes Kind das vorwärts kriegt, weil es seine Mutter riecht.
 
-intro (8x)
-(silence). Ich finde dich!

-verse 2 (no guitar):
Die Spur ist frisch und auf die Brücke.
Tropf dein SchweiB, dein warmes Blut.
Ich seh dich nicht, ich riech dich nur ich spüre dich
Ein Raubtier das vor Hunger schreit, witter ich dich meilenweit

-chorus
e|(------------------------------|---------------play 3x--------)|
B|-------------------------------|-------------------------------|
G|-------------------------------|-------------------------------|
D|5-------x-x---x-8---------x-3--|--------------------x---x-x---x|
A|5-------x-x---x-8---------x-3--|--------------------x---x-x---x|
D|5-------x-x---x-8---------x-3--|--------------------x---x-x---x|
  ^   ^   ^   ^   ^   ^   ^   ^   ^   ^   ^   ^   ^   ^   ^   ^  
          Du      riechst so  guu....       ...uuut. 
          Du      riechst so  guuuuuuut,       ich geh dir hinter-
 -her.    Du      riechst so  guu....       ...uuut, 
[ Tab from: http://www.guitartabs.cc/tabs/r/rammstein/du_riechst_so_gut_tab_ver_2.html ]
e|(------------------------------|---------------play 1x--------)|
B|-------------------------------|-------------------------------|
G|-------------------------------|-------------------------------|
D|10------x-x---x-8---------x-7--|--------------------x---x-x---x|
A|10------x-x---x-8---------x-7--|--------------------x---x-x---x|
D|10------x-x---x-8---------x-7--|--------------------x---x-x---x|
  ^   ^   ^   ^   ^   ^   ^   ^   ^   ^   ^   ^   ^   ^   ^   ^     
  ich             fiii..  .iinde dii...    ...iiich...

(repeat 1st part, violins start playing) 
                          so  guu....       ...uuut.
                          So  gut.  Ich steig dir nach
          Du      riechst so  guu....       ...uuut,

(repeat 2nd part)
 gleich           hab ich     diii...      ...iiich.


-intro (8x)
-(silence). Jetzt hab ich dich!

-verse 3 (no guitar):
Ich warte bis es dunkel ist.
Dann FaB ich an die nasse Haut.
Verrate mich nicht, oh siehst du nicht die Brücke brennt?
Hör auf zu schreien und wehr dich nicht, weil sie sonst auseiander bricht.

-chorus (same text)

-solo (4x)
e|-------------------------------|
B|6-6-6-6-4-4-4-6-3-3-3-3-4-3-4-3|
G|-------------------------------|
D|-------------------------------|
A|-------------------------------|
D|-------------------------------|

-chorus

          Du      riechst so  guu....       ...uuut. 
          Du      riechst so  guuuuuuut,       ich geh dir hinter-
-her.     Du      riechst so  guu....       ...uuut, 
ich               fiii..  .iinde dii...    ...iiich...

  (violins start playing) so  guu....       ...uuut
                          so  gut.  ich    faB dich     an.
          Du      riechst so  guu....       ...uuut,
jetzt             hab ich     diii...      ...iiich.

          Du      riechst so  guu....       ...uuut. 
          Du      riechst so  guuuuuuut,       ich geh dir hinter-
-heee....                               ....eeeerrr.
          ....

-end with:
e|-------------------------------|
B|-------------------------------|
G|-------------------------------|
D|---5---------------------------|
A|---5---------------------------|
D|---5---------------------------|
Comments