Rammstein - Du Hast Chords & Tabs

 

Du Hast Chords & Tabs

Rammstein Chords & Tabs

Version: 8 Type: Tab 0 ratings
1 star 2 stars 3 stars 4 stars 5 stars
comments

Du Hast Tab

-----------------------------------------------------------------------------
			     Rammstein - Du Hast 
-----------------------------------------------------------------------------
Tabbed by:MackDaddyMike24
Email:afikid2@yahoo.com

I really love this song so I figured it out! Took me a while but this seems to be the
right way to play it! It sounds extremly accurate! On the Piano Part you might want to
listen to the song to get the beat down right but I am sure it is right. 

Tuning:Standard Tuning

Tab Key:
	P.M.= Palm Mute
	/= Slide Up
	\= Slide Down


Verse
        P.M.-----------|         P.M.------------------| 3x
e||-------------------------------------------------------||
B||-------------------------------------------------------||
G||*-----------------------------------------------------*||
D||*-----------------------------------------------------*||
A||-7\5--------------------7\5----------------------------||
E||-5\3--0---0--0-0-0--0-0-5\3----0--0--0--0-0-0--0-0-0-0-||

        P.M.---------------|
e|---------------------------|
B|---------------------------|
G|---------------------------|
D|---------------------------|
E|-5/7-----------------------|
A|-3/5--5--5--5-5-5--5-5-5-5-|



Chorus 
        P.M.-----------|         P.M.----------------|
e|----------------------------------------------------|
B|----------------------------------------------------|
G|----------------------------------------------------|
D|----------------------------------------------------|
E|-7\5--------------------7\5-------------------------|
A|-5\3--0---0--0-0-0--0-0-5\3--0--0--0--0-0-0--0-0-0-0|

[ Tab from: http://www.guitartabs.cc/tabs/r/rammstein/du_hast_tab_ver_8.html ]
        P.M.---------------|        P.M.---------------|
e|------------------------------------------------------|
B|------------------------------------------------------|
G|------------------------------------------------------|
D|------------------------------------------------------|
E|-5/7------------------------5/7-----------------------|
A|-3/5---5--5--5-5-5--5-5-5-5-3/5---5--5--5-5-5--5-5-5-5|



        P.M.-----------|         P.M.------------------|
e|------------------------------------------------------|
B|------------------------------------------------------|
G|------------------------------------------------------|
D|------------------------------------------------------|
E|-7/10-------------------12\9--------------------------|
A|-5/8--8---8--8-8-8--8-8-10\7--7---7--7--7-7-7--7-7-7-7|



        P.M.-----------|         P.M.------------------|
e|------------------------------------------------------|
B|------------------------------------------------------|
G|------------------------------------------------------|
D|------------------------------------------------------|
E|-7\5---------------------7\5--------------------------|
A|-5\3--0---0--0-0-0--0-0--5\3--0---0--0--0-0-0--0-0-0-0|


Piano part made into guitar part
e|-242219-20-19-----192022-19|---2422192019--19202219----|
B|--------------22-----------|-------------22------------|
G|---------------------------|---------------------------|
D|---------------------------|---------------------------|
E|---------------------------|---------------------------|
A|---------------------------|---------------------------|

Well there you have it Rammstein Du Hast! Rate this please! Thanks everyone
Comments