Rammstein - Du Hast Chords & Tabs

 

Du Hast Chords & Tabs

Rammstein Chords & Tabs

Version: 4 Type: Bass Tab

Du Hast Bass Tab

Song: Du Hast
Album: Sehnsucht 
Band: Rammstein
Bassist: Oliver Riedel
Tabber: Duncan Usher, iksose3@hotmail.com

This song can be played in Standard, but the rest
of the band play in drop D, so lets do it this way.

Intro

G|-----------------------------------------||--|
D|-----------------------------------------||--|
A|-----------------------------------------||x3|
D|-7p5--2-2-222-22—---7p5--2-2-2-222-222---||--|

G|-------------------|
D|-------------------|
A|-------------------|
D|-5h7-7-7-777-777---|

Verse 1

G|-------------------------------------||--|   
D|-------------------------------------||--|   
A|-------------------------------------||x8|  
D|-7-5-2-2-2-2-2--7-5-2-2-2-5-2-2-2-2--||--|


Verse 2

G|-------------------------------------||--|   
D|-------------------------------------||--|   
A|-------------------------------------||x3|  
D|-7-5-2-2-2-2-2--7-5-2-2-2-5-2-2-2-2--||--|
[ Tab from: http://www.guitartabs.cc/tabs/r/rammstein/du_hast_btab_ver_4.html ]
G|-----------------------|  
D|-----------------------|
A|-----------------------|
D|-7-5-2-2-2-2-2--7-5----|


Chorus

G|-----------------------------------------|
D|-----------------------------------------|
A|-----------------------------------------|
D|-7p5--2-2-222-22—---7p5--2-2-2-222-222---|

G|-----------------------------------------|
D|-----------------------------------------|
A|-----------------------------------------|
D|-5h7--7-7-777-777---5h7--7-7-777-777-----|

G|---------------------------------------------|
D|---------------------------------------------|
A|---------------------------------------------|
D|-7/10-10-10-101010-1010-12-9-9-9-9-999-999---|



G|-----------------------------------------|
D|-----------------------------------------|
A|-----------------------------------------|
D|-7p5--2-2-222-22—---7p5--2-2-2-222-222---|


And that’s it, the pattern of the song is pretty
self-explainable. Great song by a great band, any
questions, comments, corrections, email me at IKSOSE3@hotmail.com