Rammstein - Du Hast Chords & Tabs

 

Du Hast Chords & Tabs

Rammstein Chords & Tabs

Version: 1 Type: Bass Tab 9 ratings
1 star 2 stars 3 stars 4 stars 5 stars
comments

Du Hast Bass Tab

   
Du Hast - Rammstein |
--------------------
 
TAB: by Big M
e-mail: Big_Mx@gmx.de
 
Main Riff
G|-----------------|
D|-----------------|
A|-----------------|
E|-5-3-0-0-0-0-0-0-|
 
Fig.1
G|-----------------|
D|-----------------|
A|-----------------|
E|-3-5-5-5-5-5-5-5-|
 
Verse
G|-----------------|-----------------|
D|-----------------|-----------------|
A|-----------------|-----------------|
E|-5-3-0-0-0-0-0-0-|-5-3-0-0-0-3-0-0-|
 
Chorus
G|-----------------|-----------------|
D|-----------------|-----------------|
A|-----------------|-----------------|
E|-5-3-0-0-0-0-0-0-|-5-3-0-0-0-0-0-0-|
 
G|-----------------|-----------------|
D|-----------------|-----------------|
A|-----------------|-----------------|
E|-3-5-5-5-5-5-5-5-|-3-5-5-5-5-5-5-5-|
 
G|-----------------|-----------------|
D|-----------------|-----------------|
A|-----------------|-----------------|
E|-5-8-8-8-8-8-8-8-|-8-7-7-7-7-7-7-7-|
 
G|-----------------|-----------------|
D|-----------------|-----------------|
A|-----------------|-----------------|
E|-5-3-0-0-0-0-0-0-|-5-3-0-0-0-0-0-0-|
 
----------------
Song structure: |
----------------
Main Riff   6x
Fig.1       1x
Verse      10x
Main Riff   6x
Fig.1       1x
Verse       4x
Chorus      3x
Wait
Chorus      2x
Chorus      3x


[ Tab from: http://www.guitartabs.cc/tabs/r/rammstein/du_hast_btab.html ]
Comments