Rammstein - Das Alte Leid Chords & Tabs

 

Das Alte Leid Chords & Tabs

Rammstein Chords & Tabs

Version: 2 Type: Tab

Das Alte Leid Tab

T: 65 bpm
                                                                               
E||------------------|------------------|------------------|------------------|
B||------------------|------------------|------------------|------------------|
G||------------------|------------------|------------------|------------------|
D||------------------|------------------|------------------|------------------|
A||------------------|------------------|------------------|------------------|
D||------------------|------------------|------------------|------------------|


                                                                                       
----------------------------|----------------------------|----------------------------|
----------------------------|----------------------------|----------------------------|
----------------------------|----------------------------|----------------------------|
--2-4--2-4----4--2-4/-7--2--|--2-4--2-4----4--2-4/-7--2--|--2-4--2-4----4--2-4/-7--2--|
--2-4--2-4----4--2-4/-7--2--|--2-4--2-4----4--2-4/-7--2--|--2-4--2-4----4--2-4/-7--2--|
--2-4--2-4--4-4--2-4/-7--2--|--2-4--2-4--4-4--2-4/-7--2--|--2-4--2-4--4-4--2-4/-7--2--|


                                                                                       
----------------------------|----------------------------|----------------------------|
----------------------------|----------------------------|----------------------------|
----------------------------|----------------------------|----------------------------|
--2-4--2-4----4--2-4/-7--2--|--2-4--2-4----4--2-4/-7--2--|--2-4--2-4----4--2-4/-7--2--|
--2-4--2-4----4--2-4/-7--2--|--2-4--2-4----4--2-4/-7--2--|--2-4--2-4----4--2-4/-7--2--|
--2-4--2-4--4-4--2-4/-7--2--|--2-4--2-4--4-4--2-4/-7--2--|--2-4--2-4--4-4--2-4/-7--2--|


                                                                                   
----------------------------|----------------------------|------------------------|
----------------------------|----------------------------|------------------------|
----------------------------|----------------------------|------------------------|
--2-4--2-4----4--2-4/-7--2--|--2-4--2-4----4--2-4/-7--7--|------------------------|
--2-4--2-4----4--2-4/-7--2--|--2-4--2-4----4--2-4/-7--7--|--2-2-----2-2-2-2-------|
--2-4--2-4--4-4--2-4/-7--2--|--2-4--2-4--4-4--2-4/-7--7--|--2-2-----2-2-2-2-------|


                                                                            
------------------------|------------------------|-------------------------|
------------------------|------------------------|-------------------------|
------------------------|------------------------|-------------------------|
------------------------|------------------------|-------------------------|
--2-2-----2-2-2-2-------|--2-2-----2-2-2-2-------|--2-2-----2-2-2-2--------|
--2-2-----2-2-2-2-------|--2-2-----2-2-2-2-------|--2-2-----2-2-2-2---5r---|


                                                                           
------------------------|------------------------|------------------------|
------------------------|------------------------|------------------------|
------------------------|------------------------|------------------------|
------------------------|------------------------|------------------------|
--2-2-----2-2-2-2-------|--2-2-----2-2-2-2-------|--2-2-----2-2-2-2-------|
--2-2-----2-2-2-2-------|--2-2-----2-2-2-2-------|--2-2-----2-2-2-2-------|


                                                                                   
------------------------|----------------------------|----------------------------|
------------------------|----------------------------|----------------------------|
------------------------|----------------------------|----------------------------|
------------------------|--2-4--2-4----4--2-4/-7--2--|--2-4--2-4----4--2-4/-7--2--|
--2-2-----2-2-2-2-------|--2-4--2-4----4--2-4/-7--2--|--2-4--2-4----4--2-4/-7--2--|
--2-2-----2-2-2-2-------|--2-4--2-4--4-4--2-4/-7--2--|--2-4--2-4--4-4--2-4/-7--2--|


                                                                                   
----------------------------|----------------------------|------------------------|
----------------------------|----------------------------|------------------------|
----------------------------|----------------------------|------------------------|
--2-4--2-4----4--2-4/-7--2--|--2-4--2-4----4--2-4/-7--7--|------------------------|
--2-4--2-4----4--2-4/-7--2--|--2-4--2-4----4--2-4/-7--7--|--2-2-----2-2-2-2-------|
--2-4--2-4--4-4--2-4/-7--2--|--2-4--2-4--4-4--2-4/-7--7--|--2-2-----2-2-2-2-------|


                                                                            
------------------------|------------------------|-------------------------|
------------------------|------------------------|-------------------------|
------------------------|------------------------|-------------------------|
------------------------|------------------------|-------------------------|
--2-2-----2-2-2-2-------|--2-2-----2-2-2-2-------|--2-2-----2-2-2-2--------|
--2-2-----2-2-2-2-------|--2-2-----2-2-2-2-------|--2-2-----2-2-2-2---5r---|


                                                                           
------------------------|------------------------|------------------------|
------------------------|------------------------|------------------------|
------------------------|------------------------|------------------------|
------------------------|------------------------|------------------------|
--2-2-----2-2-2-2-------|--2-2-----2-2-2-2-------|--2-2-----2-2-2-2-------|
--2-2-----2-2-2-2-------|--2-2-----2-2-2-2-------|--2-2-----2-2-2-2-------|


                                                                                   
-----------------------|------------------|----------|----------------------------|
-----------------------|------------------|----------|----------------------------|
-----------------------|------------------|----------|----------------------------|
--------------2--------|------------------|----------|--2-4--2-4----4--2-4/-7--2--|
--2-2-----2-2-2--------|------------------|----------|--2-4--2-4----4--2-4/-7--2--|
--2-2-----2-2-2--------|------------------|----------|--2-4--2-4--4-4--2-4/-7--2--|


                                                                                       
----------------------------|----------------------------|----------------------------|
----------------------------|----------------------------|----------------------------|
----------------------------|----------------------------|----------------------------|
--2-4--2-4----4--2-4/-7--2--|--2-4--2-4----4--2-4/-7--2--|--2-4--2-4----4--2-4/-7--2--|
--2-4--2-4----4--2-4/-7--2--|--2-4--2-4----4--2-4/-7--2--|--2-4--2-4----4--2-4/-7--2--|
--2-4--2-4--4-4--2-4/-7--2--|--2-4--2-4--4-4--2-4/-7--2--|--2-4--2-4--4-4--2-4/-7--2--|


                                                                                       
----------------------------|----------------------------|----------------------------|
----------------------------|----------------------------|----------------------------|
----------------------------|----------------------------|----------------------------|
--2-4--2-4----4--2-4/-7--2--|--2-4--2-4----4--2-4/-7--2--|--2-4--2-4----4--2-4/-7--2--|
--2-4--2-4----4--2-4/-7--2--|--2-4--2-4----4--2-4/-7--2--|--2-4--2-4----4--2-4/-7--2--|
--2-4--2-4--4-4--2-4/-7--2--|--2-4--2-4--4-4--2-4/-7--2--|--2-4--2-4--4-4--2-4/-7--2--|

[ Tab from: http://www.guitartabs.cc/tabs/r/rammstein/das_alte_leid_tab_ver_2.html ]
                                                                                       
----------------------------|----------------------------|----------------------------|
----------------------------|----------------------------|----------------------------|
----------------------------|----------------------------|----------------------------|
--2-4--2-4----4--2-4/-7--2--|--2-4--2-4----4--2-4/-7--2--|--2-4--2-4----4--2-4/-7--2--|
--2-4--2-4----4--2-4/-7--2--|--2-4--2-4----4--2-4/-7--2--|--2-4--2-4----4--2-4/-7--2--|
--2-4--2-4--4-4--2-4/-7--2--|--2-4--2-4--4-4--2-4/-7--2--|--2-4--2-4--4-4--2-4/-7--2--|


                                                                                       
----------------------------|----------------------------|----------------------------|
----------------------------|----------------------------|----------------------------|
----------------------------|----------------------------|----------------------------|
--2-4--2-4----4--2-4/-7--2--|--2-4--2-4----4--2-4/-7--2--|--2-4--2-4----4--2-4/-7--2--|
--2-4--2-4----4--2-4/-7--2--|--2-4--2-4----4--2-4/-7--2--|--2-4--2-4----4--2-4/-7--2--|
--2-4--2-4--4-4--2-4/-7--2--|--2-4--2-4--4-4--2-4/-7--2--|--2-4--2-4--4-4--2-4/-7--2--|


                                                                                       
----------------------------|----------------------------|----------------------------|
----------------------------|----------------------------|----------------------------|
----------------------------|----------------------------|----------------------------|
--2-4--2-4----4--2-4/-7--2--|--2-4--2-4----4--2-4/-7--2--|--2-4--2-4----4--2-4/-7--2--|
--2-4--2-4----4--2-4/-7--2--|--2-4--2-4----4--2-4/-7--2--|--2-4--2-4----4--2-4/-7--2--|
--2-4--2-4--4-4--2-4/-7--2--|--2-4--2-4--4-4--2-4/-7--2--|--2-4--2-4--4-4--2-4/-7--2--|


                                                                                   
----------------------------|----------------------------|------------------------|
----------------------------|----------------------------|------------------------|
----------------------------|----------------------------|------------------------|
--2-4--2-4----4--2-4/-7--2--|--2-4--2-4----4--2-4/-7--2--|------------------------|
--2-4--2-4----4--2-4/-7--2--|--2-4--2-4----4--2-4/-7--2--|--2-4--2-4--2-4---------|
--2-4--2-4--4-4--2-4/-7--2--|--2-4--2-4--4-4--2-4/-7--2--|--2-4--2-4--2-4---------|


                                                                           
------------------------|------------------------|------------------------|
------------------------|------------------------|------------------------|
------------------------|------------------------|------------------------|
------------------------|------------------------|--------------4---------|
--2-4--2-4--2-4---------|--2-4--2-4--2-4---------|--2-4--2-4--2-4---------|
--2-4--2-4--2-4---------|--2-4--2-4--2-4---------|--2-4--2-4--2-4---------|


                                                                            
------------------|------------------|------------------|------------------|
------------------|------------------|------------------|------------------|
------------------|------------------|------------------|------------------|
------------------|------------------|------------------|------------------|
------------------|------------------|------------------|------------------|
------------------|------------------|------------------|------------------|


                                                                                          
------------------|------------------|------------------|---------------------|----------|
------------------|------------------|------------------|---------------------|----------|
------------------|------------------|------------------|---------------------|----------|
------------------|------------------|------------------|------------2--------|----------|
------------------|------------------|------------------|--------2-2-2--------|----------|
------------------|------------------|------------------|--------2-2-2--------|----------|


                                                                                
------------------|--------------------|------------------|--------------------|
------------------|--17----------------|------------------|--------------14~---|
------------------|--------------------|------------------|--------------------|
------------------|--------------------|------------------|--------------------|
------------------|--------------------|------------------|--------------------|
------------------|--------------------|------------------|--------------------|


                                                                     
----------------------|----------------------|----------------------|
--14------------------|--14------------------|--14------------------|
----------------11~---|----------------11~---|----------------11~---|
----------------------|----------------------|----------------------|
----------------------|----------------------|----------------------|
----------------------|----------------------|----------------------|


                                                                     
----------------------|----------------------|----------------------|
--14------------------|--14------------------|--14------------------|
----------------11~---|----------------11~---|----------------11~---|
----------------------|----------------------|----------------------|
----------------------|----------------------|----------------------|
----------------------|----------------------|----------------------|


                                                                     
----------------------|----------------------|----------------------|
--14------------------|--14------------------|--14------------------|
----------------11~---|----------------11~---|----------------11~---|
----------------------|----------------------|----------------------|
----------------------|----------------------|----------------------|
----------------------|----------------------|----------------------|


                                                                     
----------------------|----------------------|----------------------|
--14------------------|--14------------------|--14------------------|
----------------11~---|----------------11~---|----------------11~---|
----------------------|----------------------|----------------------|
----------------------|----------------------|----------------------|
----------------------|----------------------|----------------------|


                                                                     
----------------------|----------------------|----------------------|
--14------------------|--14------------------|--14------------------|
----------------11~---|----------------11~---|----------------11~---|
----------------------|----------------------|----------------------|
----------------------|----------------------|----------------------|
----------------------|----------------------|----------------------|


                                                                     
----------------------|----------------------|----------------------|
--14------------------|--14------------------|--14------------------|
----------------11~---|----------------11~---|----------------11~---|
----------------------|----------------------|----------------------|
----------------------|----------------------|----------------------|
----------------------|----------------------|----------------------|


                                                                                    
----------------------|----------------------|------------------|------------------|
--14------------------|--14------------------|------------------|------------------|
----------------11~---|----------------11~---|------------------|------------------|
----------------------|----------------------|------------------|------------------|
----------------------|----------------------|------------------|------------------|
----------------------|----------------------|------------------|------------------|


                                       
------------------|------------------||
------------------|------------------||
------------------|------------------||
------------------|------------------||
------------------|------------------||
------------------|------------------||