Rammstein - Buck Dich Chords & Tabs

 

Buck Dich Chords & Tabs

Rammstein Chords & Tabs

Version: 5 Type: Bass Tab 0 ratings
1 star 2 stars 3 stars 4 stars 5 stars
comments

Buck Dich Bass Tab

   
Bück Dich - Rammstein

By: Jon Craven (i_apathy@hotmail.com)
For questions, comments, feedback, an outline of the timing, write the above
address.

Note:
  -Played with a pick.

(4/4)(149 bpm)
Dropped-D tuning

r - eighth rest
R - quarter rest

Intro (chorus 2): (0:19)
|----------------|----------------|----------------|----------------|
|----------------|----------------|----------------|----------------|
|----------------|----------------|----------------|----------------|
|0-0-3-0-2-0-3-0-|5-0-3-0-2-2-3-0-|0-0-3-0-2-0-3-0-|5-0-3-0-2-2-3-0-|

|----------------|----------------|----------------|----------------|
|----------------|----------------|----------------|----------------|
|----------------|----------------|----------------|----------------|
|0-0-3-0-2-0-3-0-|5-0-3-0-2-2-3-0-|0-0-3-0-2-0-3-0-|5-0-3-r-R---R---|

Chorus 1 (verse 1/fill): (x4)(0:32)
|----------------|----------------|
|----------------|----------------|
|----------------|----------------|
|0-0-3-0-2-0-3-0-|5-0-3-0-2-2-3-0-|

Verse 1
Chorus 2
Rest for three and a half measures
Chorus 1 (x4)
Rest for eight measures
[ Tab from: http://www.guitartabs.cc/tabs/r/rammstein/buck_dich_btab_ver_5.html ]
Verse 2: (1:56)
|----------------|----------------|----------------|----------------|
|----------------|----------------|----------------|----------------|
|----------------|----------------|----------------|----------------|
|0-0-3-0-2-0-3-0-|5-0-3-0-2-2-3-0-|0-0-3-0-2-0-3-0-|5-0-3-0-2-2-3-0-|

|----------------|----------------|----------------|----------------|
|----------------|----------------|----------------|----------------|
|----------------|----------------|----------------|----------------|
|0-0-3-0-2-0-3-0-|5-0-3-0-2-2-3-0-|0-0-3-0-2-0-3-0-|5-0-3-0-R---R---|

Chorus 1 (x4)

Bridge: (x2)(2:21)
|----------------|----------------|----------------|----------------|
|----------------|----------------|----------------|----------------|
|----------------|----------------|----------------|----------------|
|0-1---1---1---1-|--1---1---1---1-|0-0-3-0-2-0-3-0-|5-0-3-0-2-2-3-0-|

|----------------|----------------|
|----------------|----------------|
|----------------|----------------|
|0-0-3-0-2-0-3-0-|5-0-3-0-2-2-3-0-|

Fill (x4)
Verse 1 (x4)
Chorus 1 (x4)

Outro: (3:13)
|----------------|----------------|----------------|----------------|
|----------------|----------------|----------------|----------------|
|----------------|----------------|----------------|----------------|
|0-1---1---1---1-|--1---1---1---1-|0-1---1---1---1-|--1---1---1---1-|

|----------------|
|----------------|
|----------------|
|0-r-R---R---R---|

Rest till end
Comments