Rammstein - Buch Dich Chords & Tabs

 

Buch Dich Chords & Tabs

Rammstein Chords & Tabs

Version: 1 Type: Tab 0 ratings
1 star 2 stars 3 stars 4 stars 5 stars
comments

Buch Dich Tab

   
Band: Rammstein
Song: Buck Dich
Tabbed by: Boris Zivkovic


Drop-D tuning (low to high: D,a,D,g,b,e)
M,PM=Palm Mute


Intro Verse



Riff 1a 
---------------------------------                        
---------------------------------                        
---------------------------------                        
-0---3---2---3---5---3---0-2-3-0-                        
-0---3---2---3---5---3---0-2-3-0-                        
-0-0-3-0-2-0-3-0-5-0-3-0-0-2-3-0-                        
   M   M   M   M   M   M                                  

Riff 1b                        Riff 1c            
---------------------------------I-----------------------
---------------------------------I-----------------------
---------------------------------I-----------------------
-----3---3---3---5---3---0-2-3-0-I-----3---3---3---5---3-
-----3---2---3---5---3---0-2-3-0-I-----3---2---3---5---3-
-0-0-3-0-2-0-3-0-5-0-3-0-0-2-3-0-I-0-0-3-0-2-0-3-0-5-0-3-
 M M   M   M   M   M   M           M M   M   M   M   M   

Riff 1a x1
Riff 1b x2
Riff 1c x1
Riff 1a x1
Riff 1b x3
[ Tab from: http://www.guitartabs.cc/tabs/r/rammstein/buch_dich_tab.html ]
Verses 1 & 2
Fill 1
---------
---------
---------
-0-2-3-0-
-0-2-3-0-
-0-2-3-0-

Fill 1 x1
Riff 1a x1
Riff 1b x2
Riff 1c x1

Riff 1a x1
Riff 1b x3

Riff 2a
------------------------------------
------------------------------------
------------------------------------
------------------------------------
------------------------------------
-0-0-3-0-2-0-3-0-5-0-3-0-0-2-3-0----
PM--------------------------------

Riff 2a x8 (during verses 3 & 4) 

Verses 3 & 4


Riff 1a x1
Riff 1b x3

Fill 2
------------------------------------
------------------------------------
------------------------------------
------------------------------------
---1---1---1---1---1---1---1---1----
-1-1-1-1-1-1-1-1-1-1-1-1-1-1-1-1----
 M   M   M   M   M   M   M   M

Fill 2 x1
Riff 1a x1
Riff 1b x1
Fill 2 x1
Fill 3 x1

Fill 3
------------------------------------
------------------------------------
--(let ring)------------------------
-0----------------------------------
-0----------------------------------
-0----------------------------------

Verse 5
Riff 1a x1
Riff 1b x3
Fill 2 x2
Fill 3 x1

Fill 3
------
------
------
-0----
-0----
-0----
(don't let fill 3 ring)

Well, that's it. Hope it's not too complicated...
Comments