Rammstein - Benzin Chords & Tabs

 

Benzin Chords & Tabs

Rammstein Chords & Tabs

Version: 4 Type: Tab

Benzin Tab

   
---------------------------------------------------------------------------
			     Benzin - Rammstein
----------------------------------------------------------------------------
Tabbed by:Eduardo Lan
Email:eduardolan_12@hotmail.com

Tuning: 6 string ( E A D G B E )

Intro
e|---------------------|
B|---------------------|
G|---------------3-----|
D|-5--4--5--4---5------|
A|---------------------|
E|---------------------|x4

Pre-verse
e|----------------------------------------------------------------------|
B|----------------------------------------------------------------------|
G|----------------------------------------------------------------------|
D|-3-3-3-3-3-3-3--2-2-2-2-2-2-2-2-2--3-3-3-3-3-3-3--2-2-2-2-2--3--6-6---|
A|-3-3-3-3-3-3-3--2-2-2-2-2-2-2-2-2--3-3-3-3-3-3-3--2-2-2-2-2--3--6-6---|
E|-3-3-3-3-3-3-3--2-2-2-2-2-2-2-2-2--3-3-3-3-3-3-3--2-2-2-2-2--3--6-6---|x4

Verse
e|---------------------|
B|---------------------|
G|---------------3-----|
D|-5--4--5--4---5------|
A|---------------------|
E|---------------------|x4

Chorus
e|-------------------------------|
B|-------------------------------|
G|-------------------------------|
D|-3---4---3---3-3-3---4--6------|
A|-3---4---3---3-3-3---4--6------|
E|-3---4---3---3-3-3---4--6------|
               PM...  

e|----------------------|
B|----------------------|
G|----------------------|
D|-3---4---3--4--6------|
A|-3---4---3--4--6------|
E|-3---4---3--4--6------|
[ Tab from: http://www.guitartabs.cc/tabs/r/rammstein/benzin_tab_ver_4.html ]
Pre-verse
e|---------------------------------------------|
B|------5-------4-------5----------------------|
G|------5-------4-------5----------------------|
D|-3-3--5--2-2--4--3-3--5--2-2-2---3--6-6------|
A|-3-3-----2-2-----3-3-----2-2-2---3--6-6------|
E|-3-3-----2-2-----3-3-----2-2-2---3--6-6------|x2

Verse
e|---------------------|
B|---------------------|
G|---------------3-----|
D|-5--4--5--4---5------|
A|---------------------|
E|---------------------|x4

Chorus
e|-------------------------------|
B|-------------------------------|
G|-------------------------------|
D|-3---4---3---3-3-3---4--6------|
A|-3---4---3---3-3-3---4--6------|
E|-3---4---3---3-3-3---4--6------|
               PM...  

e|----------------------|
B|----------------------|
G|----------------------|
D|-3---4---3---4--6-----|
A|-3---4---3---4--6-----|
E|-3---4---3---4--6-----|x4


Pre-verse
e|-----------------------------------------------------------------------|
B|-----------------------------------------------------------------------|
G|-----------------------------------------------------------------------|
D|-3-3-3-3-3-3-3--2-2-2-2-2-2-2-2-2--3-3-3-3-3-3-3--2-2-2-2-2--3--6-6----|
A|-3-3-3-3-3-3-3--2-2-2-2-2-2-2-2-2--3-3-3-3-3-3-3--2-2-2-2-2--3--6-6----|
E|-3-3-3-3-3-3-3--2-2-2-2-2-2-2-2-2--3-3-3-3-3-3-3--2-2-2-2-2--3--6-6----|x2


Verse
e|---------------------|
B|---------------------|
G|---------------3-----|
D|-5--4--5--4---5------|
A|---------------------|
E|---------------------|x4

The End
e|---------------------------------------------|
B|------5-------4-------5----------------------|
G|------5-------4-------5----------------------|
D|-3-3--5--2-2--4--3-3--5--2-2-2---3--6-6------|
A|-3-3-----2-2-----3-3-----2-2-2---3--6-6------|
E|-3-3-----2-2-----3-3-----2-2-2---3--6-6------|



| /  slide up
| \  slide down
| h  hammer-on
| p  pull-off
| ~  vibrato
| +  harmonic
| x  Mute note
============================================================================