Rammstein - Bck Dich Chords & Tabs

 

Bck Dich Chords & Tabs

Rammstein Chords & Tabs

Version: 1 Type: Tab

Bck Dich Tab

   
This is a pretty simple song to play. Hope you enjoy.
Tunning - D A D G B e
[ Tab from: http://www.guitartabs.cc/tabs/r/rammstein/bck_dich_tab.html ]
Intro and Chorus
e|--------------------------------|
B|--------------------------------|
G|--------------------------------|
D|-00-3-0-2-0-3-0-5-0-3-0-0-2-3-0-|   . = palm mute
A|-00-3-0-2-0-3-0-5-0-3-0-0-2-3-0-|
D|-00-3-0-2-0-3-0-5-0-3-0-0-2-3-0-|
   ..   .   .   .   .   .
Play this 2:20 into the song after Chorus
e|-------------------------------------------------------------------------|
B|-------------------------------------------------------------------------|
G|-------------------------------------------------------------------------|
D|-0-1-1-1-1-1-1-1-1-||-00-3-0-2-0-3-0-5-0-3-0-0-2-3-0-||-0-1-1-1-1-1-1-1-1|
A|-0-1-1-1-1-1-1-1-1-||-00-3-0-2-0-3-0-5-0-3-0-0-2-3-0-||-0-1-1-1-1-1-1-1-1|
D|-0-1-1-1-1-1-1-1-1-||-00-3-0-2-0-3-0-5-0-3-0-0-2-3-0-||-0-1-1-1-1-1-1-1-1|
                                     ^--x2 
Thats basically it. Please rate this, cause it's my first tab.