Rammstein - Asche Zu Asche Chords & Tabs

 

Asche Zu Asche Chords & Tabs

Rammstein Chords & Tabs

Version: 6 Type: Tab

Asche Zu Asche Tab

--3--0--0--0--5--0--0--0--|--6--0--0--5--0--3--0--0-0-|--3--0--0--0--5--0--0--0--|


                                                                                        
------------------------------|------------------|------------------|------------------|
------------------------------|------------------|------------------|------------------|
------------------------------|------------------|------------------|------------------|
------------------------------|------------------|------------------|------------------|
--9-9-9--9-9-9--9-9-9--9-9-9--|------------------|------------------|------------------|
--7-7-7--7-7-7--7-7-7--7-7-7--|------------------|------------------|------------------|


                                                                            
------------------|------------------|------------------|------------------|
------------------|------------------|------------------|------------------|
------------------|------------------|------------------|------------------|
------------------|------------------|------------------|------------------|
------------------|------------------|------------------|------------------|
------------------|------------------|------------------|------------------|


                                                                            
------------------|------------------|------------------|------------------|
------------------|------------------|------------------|------------------|
------------------|------------------|------------------|------------------|
------------------|------------------|------------------|------------------|
------------------|------------------|------------------|------------------|
------------------|------------------|------------------|------------------|


                                                                            
------------------|------------------|------------------|------------------|
------------------|------------------|------------------|------------------|
------------------|------------------|------------------|------------------|
------------------|------------------|------------------|------------------|
------------------|------------------|------------------|------------------|
------------------|------------------|------------------|------------------|


                                                                          
------------------|--------------------------|---------------------------|
------------------|--------------------------|---------------------------|
------------------|--------------------------|---------------------------|
------------------|--------------------------|---------------------------|
------------------|--5--2--------7-----------|--8--------7-----5---------|
------------------|--3--0--0--0--5--0--0--0--|--6--0--0--5--0--3--0--0-0-|


                                                                                  
--------------------------|---------------------------|--------------------------|
--------------------------|---------------------------|--------------------------|
--------------------------|---------------------------|--------------------------|
--------------------------|---------------------------|--------------------------|
--5--2--------7-----------|--8--------7-----5---------|--5--2--------7-----------|
--3--0--0--0--5--0--0--0--|--6--0--0--5--0--3--0--0-0-|--3--0--0--0--5--0--0--0--|


                                                                                   
---------------------------|--------------------------|---------------------------|
---------------------------|--------------------------|---------------------------|
---------------------------|--------------------------|---------------------------|
---------------------------|--------------------------|---------------------------|
--8--------7-----5---------|--5--2--------7-----------|--8--------7-----5---------|
--6--0--0--5--0--3--0--0-0-|--3--0--0--0--5--0--0--0--|--6--0--0--5--0--3--0--0-0-|


                                                                                  
--------------------------|---------------------------|--------------------------|
--------------------------|---------------------------|--------------------------|
--------------------------|---------------------------|--------------------------|
--------------------------|---------------------------|--------------------------|
--5--2--------7-----------|--8--------7-----5---------|--5--2--------7-----------|
--3--0--0--0--5--0--0--0--|--6--0--0--5--0--3--0--0-0-|--3--0--0--0--5--0--0--0--|


                                                                                   
---------------------------|--------------------------|---------------------------|
---------------------------|--------------------------|---------------------------|
---------------------------|--------------------------|---------------------------|
---------------------------|--------------------------|---------------------------|
--8--------7-----5---------|--5--2--------7-----------|--8--------7-----5---------|
--6--0--0--5--0--3--0--0-0-|--3--0--0--0--5--0--0--0--|--6--0--0--5--0--3--0--0-0-|


                                                                                  
--------------------------|---------------------------|--------------------------|
--------------------------|---------------------------|--------------------------|
--------------------------|---------------------------|--------------------------|
--------------------------|---------------------------|--------------------------|
--5--2--------7-----------|--8--------7-----5---------|--5--2--------7-----------|
--3--0--0--0--5--0--0--0--|--6--0--0--5--0--3--0--0-0-|--3--0--0--0--5--0--0--0--|

[ Tab from: http://www.guitartabs.cc/tabs/r/rammstein/asche_zu_asche_tab_ver_6.html ]
                                                                                   
---------------------------|--------------------------|---------------------------|
---------------------------|--------------------------|---------------------------|
---------------------------|--------------------------|---------------------------|
---------------------------|--------------------------|---------------------------|
--8--------7-----5---------|--5--2--------7-----------|--8--------7-----5---------|
--6--0--0--5--0--3--0--0-0-|--3--0--0--0--5--0--0--0--|--6--0--0--5--0--3--0--0-0-|


                                                                                  
--------------------------|---------------------------|--------------------------|
--------------------------|---------------------------|--------------------------|
--------------------------|---------------------------|--------------------------|
--------------------------|---------------------------|--------------------------|
--5--2--------7-----------|--8--------7-----5---------|--5--2--------7-----------|
--3--0--0--0--5--0--0--0--|--6--0--0--5--0--3--0--0-0-|--3--0--0--0--5--0--0--0--|


                                                                                   
---------------------------|--------------------------|---------------------------|
---------------------------|--------------------------|---------------------------|
---------------------------|--------------------------|---------------------------|
---------------------------|--------------------------|---------------------------|
--8--------7-----5---------|--5--2--------7-----------|--8--------7-----5---------|
--6--0--0--5--0--3--0--0-0-|--3--0--0--0--5--0--0--0--|--6--0--0--5--0--3--0--0-0-|


                                                                                  
--------------------------|---------------------------|--------------------------|
--------------------------|---------------------------|--------------------------|
--------------------------|---------------------------|--------------------------|
--------------------------|---------------------------|--------------------------|
--5--2--------7-----------|--8--------7-----5---------|--5--2--------7-----------|
--3--0--0--0--5--0--0--0--|--6--0--0--5--0--3--0--0-0-|--3--0--0--0--5--0--0--0--|


                                                                                   
---------------------------|--------------------------|---------------------------|
---------------------------|--------------------------|---------------------------|
---------------------------|--------------------------|---------------------------|
---------------------------|--------------------------|---------------------------|
--8--------7-----5---------|--5--2--------7-----------|--8--------7-----5---------|
--6--0--0--5--0--3--0--0-0-|--3--0--0--0--5--0--0--0--|--6--0--0--5--0--3--0--0-0-|


                                                                                  
--------------------------|---------------------------|--------------------------|
--------------------------|---------------------------|--------------------------|
--------------------------|---------------------------|--------------------------|
--------------------------|---------------------------|--------------------------|
--5--2--------7-----------|--8--------7-----5---------|--5--2--------7-----------|
--3--0--0--0--5--0--0--0--|--6--0--0--5--0--3--0--0-0-|--3--0--0--0--5--0--0--0--|


                                                                                   
---------------------------|--------------------------|---------------------------|
---------------------------|--------------------------|---------------------------|
---------------------------|--------------------------|---------------------------|
---------------------------|--------------------------|---------------------------|
--8--------7-----5---------|--5--2--------7-----------|--8--------7-----5---------|
--6--0--0--5--0--3--0--0-0-|--3--0--0--0--5--0--0--0--|--6--0--0--5--0--3--0--0-0-|


                                                                                  
--------------------------|---------------------------|--------------------------|
--------------------------|---------------------------|--------------------------|
--------------------------|---------------------------|--------------------------|
--------------------------|---------------------------|--------------------------|
--5--2--------7-----------|--8--------7-----5---------|--5--2--------7-----------|
--3--0--0--0--5--0--0--0--|--6--0--0--5--0--3--0--0-0-|--3--0--0--0--5--0--0--0--|


                                                                                   
---------------------------|--------------------------|---------------------------|
---------------------------|--------------------------|---------------------------|
---------------------------|--------------------------|---------------------------|
---------------------------|--------------------------|---------------------------|
--8--------7-----5---------|--5--2--------7-----------|--8--------7-----5---------|
--6--0--0--5--0--3--0--0-0-|--3--0--0--0--5--0--0--0--|--6--0--0--5--0--3--0--0-0-|


                                                                                  
--------------------------|---------------------------|--------------------------|
--------------------------|---------------------------|--------------------------|
--------------------------|---------------------------|--------------------------|
--------------------------|---------------------------|--------------------------|
--5--2--------7-----------|--8--------7-----5---------|--5--2--------7-----------|
--3--0--0--0--5--0--0--0--|--6--0--0--5--0--3--0--0-0-|--3--0--0--0--5--0--0--0--|


                                                    
------------------------------|-------------------||
------------------------------|-------------------||
------------------------------|-------------------||
------------------------------|-------------------||
--9-9-9--9-9-9--9-9-9--9-9-9--|--2----------------||
--7-7-7--7-7-7--7-7-7--7-7-7--|--0----------------||