Rammstein - Asche Zu Asche Chords & Tabs

 

Asche Zu Asche Chords & Tabs

Rammstein Chords & Tabs

Version: 5 Type: Tab 0 ratings
1 star 2 stars 3 stars 4 stars 5 stars
comments

Asche Zu Asche Tab

   
Asche zu Asche
 
 Standard Tuning
 |-e-|
 |-B-|
 |-G-|
 |-D-|
 |-A-|
 |-e-|
 
 
 |---------------------------------|
 |---------------------------------|
 |---------------------------------|
 |---------7-------8-----7---5-----|
 |-5p2-----7-------8-----7---5-----|
 |-3p0-0-0-5-0-0-0-6-0-0-5-0-3-0-0-|
       pm.]  pm...]  pm.]  pm  pm.]
 
 
 One part goes
 |---------------------------------------------|
 |---------------------------------------------|
 |---------------------------------------------|
 |---------7-----------------------------------|
 |-5p2-----7-----------------------------------|
 |-3p0-0-0-5-0-0-0--6-6-6--6-6-6--6-6-6--6-6-6-|
[ Tab from: http://www.guitartabs.cc/tabs/r/rammstein/asche_zu_asche_tab_ver_5.html ]
Comments