Rammstein - Asche Zu Asche Chords & Tabs

 

Asche Zu Asche Chords & Tabs

Rammstein Chords & Tabs

Version: 4 Type: Tab 0 ratings
1 star 2 stars 3 stars 4 stars 5 stars
comments

Asche Zu Asche Tab

   
This tab is correct as far as I can tell, and i have included the right timing.



TUNING: Starndard - E A D G B E

NOTATION:
P     = Pull off
PM--| = Palm mute



Main Riff:
[ Tab from: http://www.guitartabs.cc/tabs/r/rammstein/asche_zu_asche_tab_ver_4.html ]
   |1---2---|3---4---|1---2---|3---4---|
   |
  E|--------|--------|--------|--------|
  B|--------|--------|--------|--------|
  G|--------|--------|--------|--------|
  D|5-------|7-------|8-----7-|--5-----|
  A|5-------|7-------|8-----7-|--5-----|
  E|3p0-0-0-|5-0-0-0-|6-0-0-5-|--3---00|
      PM---| PM-----| PM---|       PM--|


End Main Riff:-

   |1---2---|3---4---|1---2---|3---4---|
   |
  E|--------|--------|--------|--------|
  B|--------|--------|--------|--------|
  G|--------|--------|--------|--------|
  D|5-------|7-------|999-999-|999-999-|
  A|5-------|7-------|999-999-|999-999-|
  E|3p0-0-0-|5-0-0-0-|777-777-|777-777-|
      PM---| PM------------------------|


Cheers. Have fun!
Comments