Rammstein - Amerika Chords & Tabs

 

Amerika Chords & Tabs

Rammstein Chords & Tabs

Version: 5 Type: Tab 0 ratings
1 star 2 stars 3 stars 4 stars 5 stars
comments

Amerika Tab

   
Title: Amerika
Artist: Rammstein
Album: Reise Reise

Tabbed by: Blade555 (hordy555@tampabay.rr.com)

Tuning: C-G-C-F-A-D

This tab is a combination of a few tabs that I have found...They had some parts of the
song right but some of it was off.


  Intro (00:15-00:30)
D|-----------------------------------------------------------|x2
A|-----------------------------------------------------------|
F|-----------------------------------------------------------|
C|--1--1--1--1--1--1--1-4-8--8--8--8--8--8-6--6--6--3--3--3--|
G|--1--1--1--1--1--1--1-4-8--8--8--8--8--8-6--6--6--3--3--3--|
C|--1--1--1--1--1--1--1-4-8--8--8--8--8--8-6--6--6--3--3--3--|
    We're all living in amerika,         amerika is wunderbar

  Verse (00:30-1:00)
D|-----------------------------------------------------------|x4
A|-----------------------------------------------------------|
F|-----------------------------------------------------------|
C|-----------------------------------------------------------|
G|-----------------------------------------------------------|
C|-0-0-0-0--2-2-2-2-3-3-3-3-0-0-0-0--2-2-2-2-3-3-3-3---------|
   x x x x  x x x x x x x x x x x x  x x x x x x x x
  Chorus (1:05-1:20)

D|-----------------------------------------------------------|x4
A|-----------------------------------------------------------|
F|-----------------------------------------------------------|
C|--1--1--1--1--1--1--1-4-8--8--8--8--8--8-6--6--6--3--3--3--|
G|--1--1--1--1--1--1--1-4-8--8--8--8--8--8-6--6--6--3--3--3--|
C|--1--1--1--1--1--1--1-4-8--8--8--8--8--8-6--6--6--3--3--3--|
    We're all living in amerika,         amerika is wunderbar

  Verse (1:20-1:50)
D|-----------------------------------------------------------|x4
A|-----------------------------------------------------------|
F|-----------------------------------------------------------|
C|-----------------------------------------------------------|
G|-----------------------------------------------------------|
C|-0-0-0-0--2-2-2-2-3-3-3-3-0-0-0-0--2-2-2-2-3-3-3-3---------|
   x x x x  x x x x x x x x x x x x  x x x x x x x x 

  Drums (1:50-1:55)
[ Tab from: http://www.guitartabs.cc/tabs/r/rammstein/amerika_tab_ver_5.html ]
  Chorus (1:55-2:25)
D|-----------------------------------------------------------|x8
A|-----------------------------------------------------------|
F|-----------------------------------------------------------|
C|--1--1--1--1--1--1--1-4-8--8--8--8--8--8-6--6--6--3--3--3--|
G|--1--1--1--1--1--1--1-4-8--8--8--8--8--8-6--6--6--3--3--3--|
C|--1--1--1--1--1--1--1-4-8--8--8--8--8--8-6--6--6--3--3--3--|
    We're all living in amerika,         amerika is wunderbar

  Solo (2:25-2:40)
D|-----------------------------------------------|x4
A|-----------------------------------------------|
F|-----------------------------------------------|
C|-----------------------------------------------|
G|-----------------------------------------------|
C|-0--2--2--2--2b---0--2--2--2--2--2--0--2b---2--|

  Keyboard (2:40-2:56)

  Guitar part played with Keyboard part (2:40-2:56)

D|-----------------------------------------------|x1
A|-----------------------------------------------|
F|-----------------------------------------------|
C|---0---0---0---0---0---0---0---0---------------|
G|---0---0---0---0---0---0---0---0---------------|
C|---0---0---0---0---0---0---0---0---------------|

  Solo 2 (2:56-3:00)
D|-----------------------------------------------|x1
A|-----------------------------------------------|
F|-----------------------------------------------|
C|-----------------------------------------------|
G|-----------------------------------------------|
C|--0--2--2--2--2b---0--2--2--2--2--2--5~---0~---|

  Chorus (3:00-3:30)
D|-----------------------------------------------------------|x6
A|-----------------------------------------------------------|
F|-----------------------------------------------------------|
C|--1--1--1--1--1--1--1-4-8--8--8--8--8--8-6--6--6--3--3--3--|
G|--1--1--1--1--1--1--1-4-8--8--8--8--8--8-6--6--6--3--3--3--|
C|--1--1--1--1--1--1--1-4-8--8--8--8--8--8-6--6--6--3--3--3--|
    We're all living in amerika,         amerika is wunderbar

  Outro (3:30-3:47)
D|-----------------------------------------------|x4
A|-----------------------------------------------|
F|-----------------------------------------------|
C|-----------------------------------------------|
G|-----------------------------------------------|
C|-0--2--2--2--2b---0--2--2--2--2--2--0--2b---2--|


There thats it...email me if u have any questions. Pls vote if you like it.

  Legend:
  /  slide up
  \  slide down
  b  bend note
  h  hammer-on
  p  pull-off
  ~  vibrato
  +  harmonic
  x  Mute note
Comments