Rammstein - Amerika Chords & Tabs

 

Amerika Chords & Tabs

Rammstein Chords & Tabs

Version: 2 Type: Tab 0 ratings
1 star 2 stars 3 stars 4 stars 5 stars
comments

Amerika Tab

Song: Amerika
Artist: Rammstein
Album: Reise Reise                     

Tuning: DAFCGC

b = Bend (1/4)
~ = Vibrato

Both guitars (Richard Z Kruspe-Bernstein and Paul H Landers)
play the same.
                                                           
D||------|------|------|------|------|------|------|------|
A||------|------|------|------|------|------|------|------|
F||------|------|------|------|------|------|------|------|
C||------|------|------|------|------|------|------|------|
G||------|------|------|------|------|------|------|------|
C||------|------|------|------|------|------|------|------|


Chorus:                                                      
--------------------------|--------------------------|
--------------------------|--------------------------|
--------------------------|--------------------------|
--0--0--0--0--0--0--0--0--|--0--0--0--0--0--0--0--0--|
--0--0--0--0--0--0--0--0--|--0--0--0--0--0--0--0--0--|
--0--0--0--0--0--0--0--0--|--0--0--0--0--0--0--0--0--|


                                                      
--------------------------|--------------------------|
--------------------------|--------------------------|
--------------------------|--------------------------|
--2--2--2--2--2--2--2--2--|--2--2--2--2--2--2--2--2--|
--2--2--2--2--2--2--2--2--|--2--2--2--2--2--2--2--2--|
--2--2--2--2--2--2--2--2--|--2--2--2--2--2--2--2--2--|


                                                      
--------------------------|--------------------------|
--------------------------|--------------------------|
--------------------------|--------------------------|
--0--0--0--0--0--0--0--2--|--3--3--3--3--3--3--3--3--|
--0--0--0--0--0--0--0--2--|--3--3--3--3--3--3--3--3--|
--0--0--0--0--0--0--0--2--|--3--3--3--3--3--3--3--3--|


                                                      
--------------------------|--------------------------|
--------------------------|--------------------------|
--------------------------|--------------------------|
--2--2--2--2--2--2--2--2--|--5--5--5--5--5--5--5--5--|
--2--2--2--2--2--2--2--2--|--5--5--5--5--5--5--5--5--|
--2--2--2--2--2--2--2--2--|--5--5--5--5--5--5--5--5--|


Verse:                                             
-------------------------|-------------------------|
-------------------------|-------------------------|
-------------------------|-------------------------|
-------------------------|-------------------------|
--2--2--2--2--2----2--2--|--2--2--2----2--2--2--0--|
--2--2--2--2--2----2--2--|--2--2--2----2--2--2--0--|


                                                    
-------------------------|-------------------------|
-------------------------|-------------------------|
-------------------------|-------------------------|
-------------------------|-------------------------|
--0--2--2--2--2----2--2--|--2--2--2----5--5--5--0--|
--0--2--2--2--2----2--2--|--2--2--2----5--5--5--0--|


                                                    
-------------------------|-------------------------|
-------------------------|-------------------------|
-------------------------|-------------------------|
-------------------------|-------------------------|
--2--2--2--2--2----2--2--|--2--2--2----2--2--2--0--|
--2--2--2--2--2----2--2--|--2--2--2----2--2--2--0--|


                                                    
-------------------------|-------------------------|
-------------------------|-------------------------|
-------------------------|-------------------------|
-------------------------|-------------------------|
--0--2--2--2--2----2--2--|--2--2--2----5--5--5--0--|
--0--2--2--2--2----2--2--|--2--2--2----5--5--5--0--|


                                                    
-------------------------|-------------------------|
-------------------------|-------------------------|
-------------------------|-------------------------|
-------------------------|-------------------------|
--2--2--2--2--2----2--2--|--2--2--2----2--2--2--0--|
--2--2--2--2--2----2--2--|--2--2--2----2--2--2--0--|


                                                    
-------------------------|-------------------------|
-------------------------|-------------------------|
-------------------------|-------------------------|
-------------------------|-------------------------|
--0--4--4--4--4----4--4--|--4--4--4----4--4--4--4--|
--0--4--4--4--4----4--4--|--4--4--4----4--4--4--4--|


                                                    
-------------------------|-------------------------|
-------------------------|-------------------------|
-------------------------|-------------------------|
-------------------------|-------------------------|
--4--2--2--2--2----2--2--|--5--5--5----5--5--5--5--|
--4--2--2--2--2----2--2--|--5--5--5----5--5--5--5--|


                                                         
-------------------------|-------------------------|----|
-------------------------|-------------------------|----|
-------------------------|-------------------------|----|
-------------------------|-------------------------|----|
--5--4--4--4--4----4--4--|--4--4--4----4--4--4--4--|----|
--5--4--4--4--4----4--4--|--4--4--4----4--4--4--4--|----|


Chorus:                                                        
----|--------------------------|--------------------------|
----|--------------------------|--------------------------|
----|--------------------------|--------------------------|
----|--0--0--0--0--0--0--0--0--|--0--0--0--0--0--0--0--0--|
----|--0--0--0--0--0--0--0--0--|--0--0--0--0--0--0--0--0--|
----|--0--0--0--0--0--0--0--0--|--0--0--0--0--0--0--0--0--|


                                                      
--------------------------|--------------------------|
--------------------------|--------------------------|
--------------------------|--------------------------|
--2--2--2--2--2--2--2--2--|--2--2--2--2--2--2--2--2--|
--2--2--2--2--2--2--2--2--|--2--2--2--2--2--2--2--2--|
--2--2--2--2--2--2--2--2--|--2--2--2--2--2--2--2--2--|


                                                      
--------------------------|--------------------------|
--------------------------|--------------------------|
--------------------------|--------------------------|
--0--0--0--0--0--0--0--2--|--3--3--3--3--3--3--3--3--|
--0--0--0--0--0--0--0--2--|--3--3--3--3--3--3--3--3--|
--0--0--0--0--0--0--0--2--|--3--3--3--3--3--3--3--3--|


                                                      
--------------------------|--------------------------|
--------------------------|--------------------------|
--------------------------|--------------------------|
--2--2--2--2--2--2--2--2--|--5--5--5--5--5--5--5--5--|
--2--2--2--2--2--2--2--2--|--5--5--5--5--5--5--5--5--|
--2--2--2--2--2--2--2--2--|--5--5--5--5--5--5--5--5--|


Verse:                                                 
-------------------------|-------------------------|
-------------------------|-------------------------|
-------------------------|-------------------------|
-------------------------|-------------------------|
--2--2--2--2--2----2--2--|--2--2--2----2--2--2--0--|
--2--2--2--2--2----2--2--|--2--2--2----2--2--2--0--|


                                                    
-------------------------|-------------------------|
-------------------------|-------------------------|
-------------------------|-------------------------|
-------------------------|-------------------------|
--0--2--2--2--2----2--2--|--2--2--2----5--5--5--0--|
--0--2--2--2--2----2--2--|--2--2--2----5--5--5--0--|


                                                    
-------------------------|-------------------------|
-------------------------|-------------------------|
-------------------------|-------------------------|
-------------------------|-------------------------|
--2--2--2--2--2----2--2--|--2--2--2----2--2--2--0--|
--2--2--2--2--2----2--2--|--2--2--2----2--2--2--0--|


                                                    
-------------------------|-------------------------|
-------------------------|-------------------------|
-------------------------|-------------------------|
-------------------------|-------------------------|
--0--2--2--2--2----2--2--|--2--2--2----5--5--5--0--|
--0--2--2--2--2----2--2--|--2--2--2----5--5--5--0--|


                                                    
-------------------------|-------------------------|
-------------------------|-------------------------|
-------------------------|-------------------------|
-------------------------|-------------------------|
--2--2--2--2--2----2--2--|--2--2--2----2--2--2--0--|
--2--2--2--2--2----2--2--|--2--2--2----2--2--2--0--|


                                                    
-------------------------|-------------------------|
-------------------------|-------------------------|
-------------------------|-------------------------|
-------------------------|-------------------------|
--0--4--4--4--4----4--4--|--4--4--4----4--4--4--4--|
--0--4--4--4--4----4--4--|--4--4--4----4--4--4--4--|


                                                    
-------------------------|-------------------------|
-------------------------|-------------------------|
-------------------------|-------------------------|
-------------------------|-------------------------|
--4--2--2--2--2----2--2--|--5--5--5----5--5--5--5--|
--4--2--2--2--2----2--2--|--5--5--5----5--5--5--5--|


                                                         
-------------------------|-------------------------|----|
-------------------------|-------------------------|----|
-------------------------|-------------------------|----|
-------------------------|-------------------------|----|
--5--4--4--4--4----4--4--|--4--4--4----4--4--4--4--|----|
--5--4--4--4--4----4--4--|--4--4--4----4--4--4--4--|----|


Chorus:                                                       
----|--------------------------|--------------------------|
----|--------------------------|--------------------------|
----|--------------------------|--------------------------|
----|--0--0--0--0--0--0--0--0--|--0--0--0--0--0--0--0--0--|
----|--0--0--0--0--0--0--0--0--|--0--0--0--0--0--0--0--0--|
----|--0--0--0--0--0--0--0--0--|--0--0--0--0--0--0--0--0--|

[ Tab from: http://www.guitartabs.cc/tabs/r/rammstein/amerika_tab_ver_2.html ]
                                                      
--------------------------|--------------------------|
--------------------------|--------------------------|
--------------------------|--------------------------|
--2--2--2--2--2--2--2--2--|--2--2--2--2--2--2--2--2--|
--2--2--2--2--2--2--2--2--|--2--2--2--2--2--2--2--2--|
--2--2--2--2--2--2--2--2--|--2--2--2--2--2--2--2--2--|


                                                      
--------------------------|--------------------------|
--------------------------|--------------------------|
--------------------------|--------------------------|
--0--0--0--0--0--0--0--2--|--3--3--3--3--3--3--3--3--|
--0--0--0--0--0--0--0--2--|--3--3--3--3--3--3--3--3--|
--0--0--0--0--0--0--0--2--|--3--3--3--3--3--3--3--3--|


                                                      
--------------------------|--------------------------|
--------------------------|--------------------------|
--------------------------|--------------------------|
--2--2--2--2--2--2--2--2--|--5--5--5--5--5--5--5--5--|
--2--2--2--2--2--2--2--2--|--5--5--5--5--5--5--5--5--|
--2--2--2--2--2--2--2--2--|--5--5--5--5--5--5--5--5--|


                                                      
--------------------------|--------------------------|
--------------------------|--------------------------|
--------------------------|--------------------------|
--0--0--0--0--0--0--0--0--|--0--0--0--0--0--0--0--0--|
--0--0--0--0--0--0--0--0--|--0--0--0--0--0--0--0--0--|
--0--0--0--0--0--0--0--0--|--0--0--0--0--0--0--0--0--|


                                                      
--------------------------|--------------------------|
--------------------------|--------------------------|
--------------------------|--------------------------|
--2--2--2--2--2--2--2--2--|--2--2--2--2--2--2--2--2--|
--2--2--2--2--2--2--2--2--|--2--2--2--2--2--2--2--2--|
--2--2--2--2--2--2--2--2--|--2--2--2--2--2--2--2--2--|


                                                      
--------------------------|--------------------------|
--------------------------|--------------------------|
--------------------------|--------------------------|
--0--0--0--0--0--0--0--2--|--3--3--3--3--3--3--3--3--|
--0--0--0--0--0--0--0--2--|--3--3--3--3--3--3--3--3--|
--0--0--0--0--0--0--0--2--|--3--3--3--3--3--3--3--3--|


                                                      
--------------------------|--------------------------|
--------------------------|--------------------------|
--------------------------|--------------------------|
--2--2--2--2--2--2--2--2--|--5--5--5--5--5--5--5--5--|
--2--2--2--2--2--2--2--2--|--5--5--5--5--5--5--5--5--|
--2--2--2--2--2--2--2--2--|--5--5--5--5--5--5--5--5--|


Solo:                                                    
-------------------------|-------------------------|
-------------------------|-------------------------|
-------------------------|-------------------------|
-------------------------|-------------------------|
-------------------------|-------------------------|
--0--2--2--2--2b---0--2--|--2--2--2--2--0--2b---2--|


                                                   
-------------------------|------------------------|
-------------------------|------------------------|
-------------------------|------------------------|
-------------------------|------------------------|
-------------------------|------------------------|
--0--2--2--2--2b---0--2--|--2--2--2--2--5~---0~---|


                                                    
-------------------------|-------------------------|
-------------------------|-------------------------|
-------------------------|-------------------------|
-------------------------|-------------------------|
-------------------------|-------------------------|
--0--2--2--2--2b---0--2--|--2--2--2--2--0--2b---2--|


                                                   
-------------------------|------------------------|
-------------------------|------------------------|
-------------------------|------------------------|
-------------------------|------------------------|
-------------------------|------------------------|
--0--2--2--2--2b---0--2--|--2--2--2--2--5~---0~---|


While keyboard solo, play this:                            
-------------------|--------------------|
--6----------------|--10----------------|
--5----------------|--9-----------------|
--3----------------|--7-----------------|
-------------------|--------------------|
-------------------|--------------------|


                                         
---------------------|------------------|
--10--5--------------|------------------|
--9---4--------------|------------------|
--7---2--------------|------------------|
---------------------|------------------|
---------------------|------------------|


                                         
-------------------|--------------------|
--6----------------|--10----------------|
--5----------------|--9-----------------|
--3----------------|--7-----------------|
-------------------|--------------------|
-------------------|--------------------|


                                         
---------------------|------------------|
--10--5--------------|------------------|
--9---4--------------|------------------|
--7---2--------------|------------------|
---------------------|------------------|
---------------------|------------------|


Solo (Again):                                                  
-------------------------|------------------------|
-------------------------|------------------------|
-------------------------|------------------------|
-------------------------|------------------------|
-------------------------|------------------------|
--0--2--2--2--2b---0--2--|--2--2--2--2--5~---0~---|


Chorus:                                                    
--------------------------|--------------------------|
--------------------------|--------------------------|
--------------------------|--------------------------|
--0--0--0--0--0--0--0--0--|--0--0--0--0--0--0--0--0--|
--0--0--0--0--0--0--0--0--|--0--0--0--0--0--0--0--0--|
--0--0--0--0--0--0--0--0--|--0--0--0--0--0--0--0--0--|


                                                      
--------------------------|--------------------------|
--------------------------|--------------------------|
--------------------------|--------------------------|
--2--2--2--2--2--2--2--2--|--2--2--2--2--2--2--2--2--|
--2--2--2--2--2--2--2--2--|--2--2--2--2--2--2--2--2--|
--2--2--2--2--2--2--2--2--|--2--2--2--2--2--2--2--2--|


                                                      
--------------------------|--------------------------|
--------------------------|--------------------------|
--------------------------|--------------------------|
--0--0--0--0--0--0--0--2--|--3--3--3--3--3--3--3--3--|
--0--0--0--0--0--0--0--2--|--3--3--3--3--3--3--3--3--|
--0--0--0--0--0--0--0--2--|--3--3--3--3--3--3--3--3--|


                                                      
--------------------------|--------------------------|
--------------------------|--------------------------|
--------------------------|--------------------------|
--2--2--2--2--2--2--2--2--|--5--5--5--5--5--5--5--5--|
--2--2--2--2--2--2--2--2--|--5--5--5--5--5--5--5--5--|
--2--2--2--2--2--2--2--2--|--5--5--5--5--5--5--5--5--|


                                                      
--------------------------|--------------------------|
--------------------------|--------------------------|
--------------------------|--------------------------|
--0--0--0--0--0--0--0--0--|--0--0--0--0--0--0--0--0--|
--0--0--0--0--0--0--0--0--|--0--0--0--0--0--0--0--0--|
--0--0--0--0--0--0--0--0--|--0--0--0--0--0--0--0--0--|


                                                      
--------------------------|--------------------------|
--------------------------|--------------------------|
--------------------------|--------------------------|
--2--2--2--2--2--2--2--2--|--2--2--2--2--2--2--2--2--|
--2--2--2--2--2--2--2--2--|--2--2--2--2--2--2--2--2--|
--2--2--2--2--2--2--2--2--|--2--2--2--2--2--2--2--2--|


                                                      
--------------------------|--------------------------|
--------------------------|--------------------------|
--------------------------|--------------------------|
--0--0--0--0--0--0--0--2--|--3--3--3--3--3--3--3--3--|
--0--0--0--0--0--0--0--2--|--3--3--3--3--3--3--3--3--|
--0--0--0--0--0--0--0--2--|--3--3--3--3--3--3--3--3--|


                                                      
--------------------------|--------------------------|
--------------------------|--------------------------|
--------------------------|--------------------------|
--2--2--2--2--2--2--2--2--|--5--5--5--5--5--5--5--5--|
--2--2--2--2--2--2--2--2--|--5--5--5--5--5--5--5--5--|
--2--2--2--2--2--2--2--2--|--5--5--5--5--5--5--5--5--|


Ending:                                                
-------------------------|-------------------------|
-------------------------|-------------------------|
-------------------------|-------------------------|
-------------------------|-------------------------|
-------------------------|-------------------------|
--0--2--2--2--2b---0--2--|--2--2--2--2--0--2b---2--|


                                                  
-------------------------|-----------------------|
-------------------------|-----------------------|
-------------------------|-----------------------|
-------------------------|-----------------------|
-------------------------|-----------------------|
--0--2--2--2--2b---0--2--|--2--2--2--2--5~-------|


                                                    
-------------------------|-------------------------|
-------------------------|-------------------------|
-------------------------|-------------------------|
-------------------------|-------------------------|
-------------------------|-------------------------|
--0--2--2--2--2b---0--2--|--2--2--2--2--0--2b---2--|


                                                          
-------------------------|-----------------------|------||
-------------------------|-----------------------|------||
-------------------------|-----------------------|------||
-------------------------|-----------------------|------||
-------------------------|-----------------------|------||
--0--2--2--2--2b---0--2--|--2--2--2--2--5~-------|------||
Comments