Rammstein - Adios Chords & Tabs

 

Adios Chords & Tabs

Rammstein Chords & Tabs

Version: 6 Type: Tab

Adios Tab

   Adios
          By Rammstein
          From Mutter
          Tabbed By Axel F (real name XD)

          Drop D Tuning

          intro

          e-----------------------------------------------------------|
          B-----------------------------------------------------------|
          G-------------------10-10-10-10/12-12-12-7--7-7-7-7-7/5-5/4-|
          D-8-8-8-8-8-8-8-8---10-10-10-10/12-12-12-7--7-7-7-7-7/5-5/4-|
          A-8-8-8-8-8-8-8-8----8--8--8--8/10-10-10-5--5-5-5-5-5/3-3/2-|
          D-8-8-8-8-8-8-8-8-------------------------------------------|
[ Tab from: http://www.guitartabs.cc/tabs/r/rammstein/adios_tab_ver_6.html ]
          Chourus
          e------------------------------------------------------------------|
          B------------------------------------------------------------------|
          G------------------------------------------------------------------|
          D--8---10---12--x-x-x-x-x-x---10-12---x-x-x-x-x-x---10-12-x-x-x-x--|
          A--8---10---12--x-x-x-x-x-x---10-12---x-x-x-x-x-x---10-12-x-x-x-x--|
          G--8---10---12--x-x-x-x-x-x---10-12---x-x-x-x-x-x---10-12-x-x-x-x--|


          e----------|
          B----------|
          G----------|  and repeat this^^
          D-x-x-x-x--|
          A-x-x-x-x--|
          G-x-x-x-x--|


ok, thats it! I donīt know how to play the solo, but the chorus is easier than in the 
tabs, and right ;-).
I have to say, that tis is my first tab so mayby there are mistakes.

And I have to say: Jetzt bin ich auch auf ner Website!!! :-P
That was an insider joke^^