Rammstein - Adios Chords & Tabs

 

Adios Chords & Tabs

Rammstein Chords & Tabs

Version: 5 Type: Tab 0 ratings
1 star 2 stars 3 stars 4 stars 5 stars
comments

Adios Tab

esta tablatura va dedicada a todos los fans de rammstein esta es una cancion sencilla y 
solo es facilisimo chavos chavas que comienzan mandenme e-mail si quieren alguna cancion 
especial !QUE SE DIVIERTAN !
[ Tab from: http://www.guitartabs.cc/tabs/r/rammstein/adios_tab_ver_5.html ]
E /-------------------------------------------------------------------/
B /-------------------------------------------------------------------/
G/--------------------------------------------------------------------/
D/--------------------10------------12--------------------------------/
A/-------8------8------------10-----------------12-----------10-------/
E/-6------------------------------------10-------------8--------------/
posupuesto debes oir o conocer la cancion para saber el tiempo en que cambias de una 
aotra esto de arriba se repite x2

E/------------------------------------------------------------/
B/------------------------------------------------------------/
G/------------------------------------------------------------/
D/----------------------10----------8-----------5--/----------/
A/---------8-----8-------------5---------/-3------------------/
E/---6--------------------------------------------------------/
SI SABES LA CANCION SABRAS COMO SE UTILIZA / 3 5 /
Comments