Raised Fist - Pretext Chords & Tabs

 

Pretext Chords & Tabs

Raised Fist Chords & Tabs

Version: 1 Type: Tab 0 ratings
1 star 2 stars 3 stars 4 stars 5 stars
comments

Pretext Tab

BAND: RAISED FIST
SONG: PRETEXT
ALBUM: FUEL
GUITARIST: MARCO
TABBED BY: DOMINIC--> (sex_machine35@hotmail.com)

PM =  PALM MUTE
/  =  SLIDE

INTRO:                                         
E|--------|                  E|--------------|---------------------|
B|--------|                  B|--------------|---------------------|
G|--------| REPEAT 2 X THEN: G|--------------|---------------------|
D|-2------|                  D|-2-2------2---|---2-2-2-2-2-2-2-2---|
A|-2------|                  A|-2-2------2---|---2-2-2-2-2-2-2-2---|
E|-0------|                  E|-0-0------0---|---O-O-O-O-O-O-O-O---|
                              |--PM--|         |-----PM-----PM-----|
[ Tab from: http://www.guitartabs.cc/tabs/r/raised_fist/pretext_tab.html ]
VERSE 1:
E|-----------(PART-ONE)----------------|------------(PART-TWO)-------------|
B|-------------------------------------|-----------------------------------|
G|---6-6-6-6-6-6-6-9-------------------|-6-6-6-9---------------------------|
D|---6-6-6-6-6-6-6-9-7-7-7-7-2-2-2-2---|-6-6-6-9-7-7-7-7-2-2-2-2-2-2-2-2---|
A|---4-4-4-4-4-4-4-7-7-7-7-7-2-2-2-2---|-4-4-4-7-7-7-7-7-2-2-2-2-2-2-2-2---|
E|-------------------5-5-5-5-0-0-0-0---|---------5-5-5-5-0-0-0-0-0-0-0-0---|
 |----PM-----PM-----PM-------PM--------|----PM-------PM-------PM-----PM----|

CHORUS:
E|-------------|
B|-------------|
G|-6-6-7-------|
D|-6-6-7-7-9---|
A|-4-4-5-7-9---|
E|-------5-7---|

BRIDGE:
E|-------------|
B|-------------|
G|-8/9---8/5---|
D|-7/9---7/5---|  (NOT SURE ABOUT THIS BIT)
A|-------------|
E|-------------|

VERSE 2:
E|--------------PART-ONE---------------|---------PART-TWO -----------------|
B|-------------------------------------|-----------------------------------|
G|-6-6-6-6-6---------------------------|-6-6-6-9---------------------------|
D|-6-6-6-6-6---7-7-7-7-7---2-2-2-2-2---|-6-6-6-9-7-7-7-7-2-2-2-2-2-2-2-2---|
A|-4-4-4-4-4---7-7-7-7-7---2-2-2-2-2---|-4-4-4-7-7-7-7-7-2-2-2-2-2-2-2-2---|
E|-------------5-5-5-5-5---0-0-0-0-0---|---------5-5-5-5-0-0-0-0-0-0-0-0---|
 |----PM—---| |---PM—---| |---PM----|   |---PM-----PM------PM-----PM-------|

OUTRO:
E|-------------------------|
B|-------------------------|
G|-6-6-6-------------------|  THIS IS PLAYED THE SAME BUT PALM MUTED
D|-6-6-6-7-7-7-7-9-9-9-9---|  IN DIFFERENT WAYS UNTILL THE END.
A|-4-4-4-7-7-7-7-9-9-9-9---|
E|-------5-5-5-5-7-7-7-7---|

ORDER PLAYED
1.INTRO          6.VERSE 2 PRT 1
2.VERSE 1 PRT 1  7.VERSE 2 PRT 2
3.VERSE 1 PRT 2  8.CHORUS
4.CHORUS         9.OUTRO
5.BRIDGE
Comments