Raise Hell - Hell Raise The Devil Chords & Tabs

 

Hell Raise The Devil Chords & Tabs

Raise Hell Chords & Tabs

Version: 1 Type: Tab 0 ratings
1 star 2 stars 3 stars 4 stars 5 stars
comments

Hell Raise The Devil Tab

                           Raise Hell "Raise the Devil"
                    from the album "Holy Target" /Nuclear Blast
                    tabbed by Chris Comments to Grinder@Netcologne.de
Riff 1
E-|---------------------------------------------------------------------------|
B-|---------------------------------------------------------------------------|
G-|-99999---9-----------------------------------------------------------------|
D-|-99999---9---------10101010-9----------------------------------------------|
A-|-77777---777777777-8-8-8-8--7----------------------------------------------|
E-|---------------------------------------------------------------------------|
             ....... (palm muting)
  Riff 2
E-|---------------------------------------------------------------------------|
B-|---------------------------------------------------------------------------|
G-|---------------------------------------------------------------------------|
D-|---------------------------------------------------------------------------|
A-|-5-5-5-5-5-9-9-9-7-7-7-5-5-5h7~~-------------------------------------------|
E-|---------------------------------------------------------------------------|
    . .   . .   . .   . .   . .
   Riff 3
E-|---------------------------------------------------------------------------|
B-|---------------------------------------------------------------------------|
G-|---------------------------------------------------------------------------|
D-|---------------------------------------------------------------------------|
A-|-7-7-7-7-7-11-11-11-9-9-9-7-7-7h9~~----------------------------------------|
E-|---------------------------------------------------------------------------|
    . .   . .    .  .    . .   . .
   Riff 4
E-|---------------------------------------------------------------------------|
B-|---------------------------------------------------------------------------|
G-|-9-------------------------------------------------------------------------|
D-|-9---------10101010-9------------------------------------------------------|
A-|-777777777-8-8-8-8--7------------------------------------------------------|
E-|---------------------------------------------------------------------------|

   Riff 5
E-|---------------------------------------------------------------------------|
B-|---------------------------------------------------------------------------|
G-|---------------------------------------------------------------------------|
D-|---------------------9999-77777777-77\5555---------------------------------|
A-|-555555555-7777-9999------------------------77777777-----------------------|
E-|---------------------------------------------------------------------------|
[ Tab from: http://www.guitartabs.cc/tabs/r/raise_hell/hell_raise_the_devil_tab.html ]
   Riff 6
E-|---------------------------------------------------------------------------|
B-|---------------------------------------------------------------------------|
G-|-----------12121212-------------------10101010-9999-77777777---------------|
D-|--------------------1212121212121212---------------------------------------|
A-|-5555-7777-----------------------------------------------------------------|
E-|---------------------------------------------------------------------------|

   Riff 7
E-|---------------------------------------------------------------------------|
B-|---------------------------------------------------------------------------|
G-|---------------------------------------------------------------------------|
D-|-9-9/10-9/10-----11--------------------------------------------------------|
A-|-7-7/8--7/8-8888-9---------------------------------------------------------|
E-|---------------------------------------------------------------------------|
               ....
   Riff 8
E-|---------------------------------------------------------------------------|
B-|---------------------------------------------------------------------------|
G-|---------------------------------------------------------------------------|
D-|-9-----9/10-----9/10-----11------------------------------------------------|
A-|-77777-7/8-8888-7/8-8888-9-9999--------------------------------------------|
E-|---------------------------------------------------------------------------|
     ....     ....     ....   ....
   Riff 10
E-|---------------------------------------------------------------------------|
B-|-----------------------6h8~------------------------------------------------|
G-|-5-7-9----9p7---7~-7h9-----------------------------------------------------|
D-|-------10-----9------------------------------------------------------------|
A-|---------------------------------------------------------------------------|
E-|---------------------------------------------------------------------------|

   Riff 11
E-|---------------------------------------------------------------------------|
B-|-----------------------10p8~-----------------------------------------------|
G-|-5-7-9----9p7---7~-7h9-----------------------------------------------------|
D-|-------10-----9------------------------------------------------------------|
A-|---------------------------------------------------------------------------|
E-|---------------------------------------------------------------------------|

   Guitar "Solo"
E-|---------------------------------------------------------------------------|
B-|---------------------------------------------------------------------------|
G-|-15(b16)-13-12-----12-14----15(b16)-12-13-15p12---15p12---15p12---15p12----|
D-|---------------14~-------13--------------------13------13------13------13~-|
A-|---------------------------------------------------------------------------|
E-|---------------------------------------------------------------------------|

Music by Jonas Nilsson
Comments