Raisa - Terjebak Nostalgia Chords & Tabs

 

Terjebak Nostalgia Chords & Tabs

Raisa Chords & Tabs

Version: 1 Type: Tab 0 ratings
1 star 2 stars 3 stars 4 stars 5 stars
comments

Terjebak Nostalgia Tab

   
------------------------------------------------------------------
                     RAISA - TERJEBAK NOSTALGIA
------------------------------------------------------------------

Verse#1 :
  E               Am              E               Am
e|--------0------|--------0------|--------0------|---------------|
B|----0-------0--|1--------------|----0-------0--|3-------1------|
G|--1---1---1---1|----2-------2--|--1---1---1---1|----2-------2--|
D|---------------|--2---2---2---2|---------------|--2---2---2---2|
A|---------------|0--------------|---------------|0--------------|
E|0--------------|---------------|0--------------|---------------|
      Te..lah la..ma                  Ku..ta..hu  eng.....kau

  E               G#m             A               B
e|--------0---7--|7-------5---4--|2-------2---0--|0--------------|
B|----0----------|4---4----------|2---2----------|4-------4------|
G|--1---1---1----|4-4---4---4---4|2-2---2---2---2|4---4-------4--|
D|---------------|---------------|---------------|--4---4---4---4|
A|---------------|---------------|0--------------|2--------------|
E|0--------------|4--------------|---------------|---------------|
      Pu..nya ra..sa      un..tuk ku....


Verse#2 :
  E               Am              E               Am
e|--------0------|--------0------|--------0------|---------------|
B|----0-------0--|1--------------|----0-------0--|3-------1------|
G|--1---1---1---1|----2-------2--|--1---1---1---1|----2-------2--|
D|---------------|--2---2---2---2|---------------|--2---2---2---2|
A|---------------|0--------------|---------------|0--------------|
E|0--------------|---------------|0--------------|---------------|
      Ki..ni  sa..at                  Dia tak kem-ba......li

  E               G#m             A               B
e|--------0---7--|7-------5---4--|2-------2---0--|2-------2---0--|
B|----0----------|4---4----------|2---2----------|4---4----------|
G|--1---1---1----|4-4---4---4---4|2-2---2---2---2|4-4---4---4----|
D|---------------|---------------|---------------|---------------|
A|---------------|---------------|0--------------|2--------------|
E|0--------------|4--------------|---------------|---------------|
      Kau nya-ta..kan     cin-ta..mu....                      Na-

[ Tab from: http://www.guitartabs.cc/tabs/r/raisa/terjebak_nostalgia_tab.html ]
Bridge :
  Am              G#m             F#m             B
e|---------------|---------------|------------0--|2-------0------|
B|------------5--|------------5--|----0---2------|4---4-------4--|
G|6-------6------|4-------4------|2--------------|4-4---4---4---4|
D|7---7----------|6---6----------|4---------4---4|---------------|
A|7-7---7---7----|6-6---6---6----|4-4---4--------|2--------------|
E|5--------------|4--------------|2--------------|---------------|
  mun...      a...ku...       Tak kan pernah  bi..sa...   Ku...    


Reff :
  E               G#m             C#m             B
e|4-------0------|---------------|4-------0------|2-------0-----0|
B|----0-------0--|7-------4-----5|------------0--|---------------|
G|--1---1---1----|----4-------4--|----6----------|----4-------4--|
D|---------------|--6---6---6----|--6---6---6----|--4---4---4----|
A|---------------|---------------|4--------------|2--------------|
E|0--------------|4--------------|---------------|---------------|
  takkan pernah merasa....     Rasakan cinta yg kaube...ri...   Ku-

  A               G#m             D               B
e|5--------------|5---4---0-2-4-4|--------2------|2-------2-----0|
B|------7-------5|---------------|----3-------3--|4---4-------4--|
G|----6-------6--|--4---4--------|--2---2---2---2|4-4---4---4----|
D|--7-------7----|---------------|0--------------|---------------|
A|---------------|---------------|---------------|2--------------|
E|5--------------|4--------------|---------------|---------------|
  terjebak     di ru..ang nostalgia....                         Se-

  E               G#m             C#m             B
e|4-------0------|---------------|4-------0------|2-------0-----0|
B|----2-------0--|7-------4-----5|------------0--|---------------|
G|--2---2---2----|----4-------4--|----6----------|----4-------4--|
D|---------------|--6---6---6----|--6---6---6----|--4---4---4----|
A|0--------------|---------------|4--------------|2--------------|
E|---------------|4--------------|---------------|---------------|
  mua yg kurasa kini...       tak berubah sejak dia per...gi    Ma

  A               G#m             F#m               B       E
e|5--------------|5---4---0------|5---4---2---0--|----------0~---|
B|------7-------5|------7--------|---------------|2~---4----0~---|
G|----6-------6--|--4------------|--2---2---2----|2~--------1~---|
D|--7-------7----|---------------|---------------|2~-4---4-------|
A|---------------|---------------|---------------|2~-------------|
E|5--------------|4--------------|2--------------|----------0~---|
  af...kanlah  ku ha...nya ingin  sen...diri  ku  di...si...ni...    
 



             ******************************************
             * Tabbed By : Visi Anisa Lestari         *
             * Country   : Indonesia (West Java)      *
             * Artist    : Raisa                      *
             * Title     : Terjebak Nostalgia         *
             * Tuning    : Standard                   *
             * Email     : visianisalestari@gmail.com *
             ******************************************
Comments