Rainbow Butt Monkeys - Dropping Chords & Tabs

 

Dropping Chords & Tabs

Rainbow Butt Monkeys Chords & Tabs

Version: 1 Type: Tab 0 ratings
1 star 2 stars 3 stars 4 stars 5 stars
comments

Dropping Tab

Rainbow Butt Monkyes: Dropping
Tabbed By: Jacob Belisario
Its Played In: Standard Drop D
E-Mail: J_dawg2992@msn.com


Intro:
--------------------------------------------------------------------|
--------------------------------------------------------------------|
--------------------------------------------------------------------|
--------------------------------------------------------------------|
0-h-3-h-5-x---xx----------------------------------------------------|
0-h-3-h-5-x---xx----------------------------------------------------|

      4X

Main Riff:
------------------------------------------------------------------|
-------------3-x-3333---------------------------------------------|
-------------3-x-3333---------------------------------------------|
-------------3-x-3333---------------------------------------------|
0-h-3-h-5---------------------------------------------------------|
0-h-3-h-5---------------------------------------------------------|

[ Tab from: http://www.guitartabs.cc/tabs/r/rainbow_butt_monkeys/dropping_tab.html ]
Chorus:
------------------------------------------------------------------|
------------------------------------------------------------------|
--------------7--5------------------------------------------------|
--------------7--5------------------------------------------------|
5-h-777--xx---5--3------------------------------------------------|
5-h-777--xx-------------------------------------------------------|

BreakDown

------------------------------------------------------------------|
--------------12-12-x--14-x-14-12---------------------------------|
--------------12-12-x--14-x-14-12---------------------------------|
--------------12-12-x--14-x-14-12---------------------------------|
3-h-5---------------------------------5555-8888-7777-666----------|
3-h-5-(ring)--------------------------5555-8888-7777-666----------|

              4X                               8X


This sounds correct and I hope it does good for those that listen to RBM... But The CD! 
aren't many left!
Comments