Rainbow - Wolf To The Moon Chords & Tabs

 

Wolf To The Moon Chords & Tabs

Rainbow Chords & Tabs

Version: 1 Type: Bass Tab 0 ratings
1 star 2 stars 3 stars 4 stars 5 stars
comments

Wolf To The Moon Bass Tab

                               Wolf to the moon                                 


BASS
                                                             
G||------------------|-------------------|------------------|
D||------------------|-------------------|------------------|
A||------------------|--5----------------|------------------|
E||------------------|-------------------|------------------|


                                                               
-------------------|----------------------|-------------------|
-------------------|----------------------|-------------------|
--3----------------|----------------------|--5----------------|
-------------------|--3----6----5----3----|-------------------|


                                                              
------------------|-------------------|----------------------|
------------------|-------------------|----------------------|
------------------|--3----------------|----------------------|
------------------|-------------------|--3----6----5----3----|


                                                                          
------------------------------------|------------------------------------|
------------------------------------|------------------------------------|
--5----5--5--5--5--5----5--5--5--5--|--5----5--5--5--5--5----5--5--5--5--|
------------------------------------|------------------------------------|


                                                                          
------------------------------------|------------------------------------|
------------------------------------|------------------------------------|
--3----3--3--3--3--3----3--3--3--3--|------------------------------------|
------------------------------------|--5----5--5--5--5--5----5--5--5--5--|


                                                                          
------------------------------------|------------------------------------|
------------------------------------|------------------------------------|
--5----5--5--5--5--5----5--5--5--5--|--5----5--5--5--5--5----5--5--5--5--|
------------------------------------|------------------------------------|


                                                            
------------------------------------|----------------------|
------------------------------------|----------------------|
--3----3--3--3--3--3----3--3--3--3--|----------------------|
------------------------------------|--3----6----5----3----|


                                                                            
|-------------------------------------|------------------------------------|
|*------------------------------------|------------------------------------|
|*------------------------------------|---------------------------0--1--2--|
|---1----1--1--1--1--1----1--1--1--1--|--1----1--1--1--1--1----1-----------|


                                                                          
------------------------------------|------------------------------------|
------------------------------------|------------------------------------|
--3----3--3--3--3--3----3--3--3--3--|--3----3--3--3--3--3----3-----------|
------------------------------------|---------------------------0--1--2--|


                                                                   
-----------------------------|------------------------------------|
-----------------------------|------------------------------------|
------------------------0----|--1----1--1--1--1--1----1--1--1--1--|
--3----3--3--3--3--3---------|------------------------------------|


                                                                          
------------------------------------|------------------------------------|
------------------------------------|------------------------------------|
--5----5--5--5--5--5----5--5--5--5--|--5----5--5--5--5--5----5--5--5--5--|
------------------------------------|------------------------------------|


                                                                          
------------------------------------|------------------------------------|
------------------------------------|------------------------------------|
------------------------------------|---------------------------0--1--2--|
--1----1--1--1--1--1----1--1--1--1--|--1----1--1--1--1--1----1-----------|


                                                                          
------------------------------------|------------------------------------|
------------------------------------|------------------------------------|
--3----3--3--3--3--3----3--3--3--3--|--3----3--3--3--3--3----3-----------|
------------------------------------|---------------------------0--1--2--|


                                                                   
-----------------------------|------------------------------------|
-----------------------------|------------------------------------|
------------------------0----|--1----1--1--1--1--1----1--1--1--1--|
--3----3--3--3--3--3---------|------------------------------------|


                                                                          
------------------------------------|------------------------------------|
------------------------------------|------------------------------------|
--0----0--0--0--0--0----0--0--0--0--|--0----0--0--0--0--0----0--0--0--0--|
------------------------------------|------------------------------------|


                                                                          
------------------------------------|------------------------------------|
------------------------------------|------------------------------------|
--1----1--1--1--1--1----1--1--1--1--|--4----4--4--4--4--4----4--4--4--4--|
------------------------------------|------------------------------------|


                                                                          
------------------------------------|------------------------------------|
------------------------------------|------------------------------------|
--5----5--5--5--5--5----5--5--5--5--|--3----3--3--3--3--3----3--3--3--3--|
------------------------------------|------------------------------------|


                                                                          
------------------------------------|------------------------------------|
------------------------------------|------------------------------------|
--1----1--1--1--1--1----1--1--1--1--|--0----0--0--0--0--0----0--0--0--0--|
------------------------------------|------------------------------------|


                                                                          
------------------------------------|------------------------------------|
------------------------------------|------------------------------------|
--5----5--5--5--5--5----5--5--5--5--|--5----5--5--5--5--5----5--5--5--5--|
------------------------------------|------------------------------------|


                                                                          
------------------------------------|------------------------------------|
------------------------------------|------------------------------------|
--3----3--3--3--3--3----3--3--3--3--|------------------------------------|
------------------------------------|--5----5--5--5--5--5----5--5--5--5--|


                                                                          
------------------------------------|------------------------------------|
------------------------------------|------------------------------------|
--5----5--5--5--5--5----5--5--5--5--|--5----5--5--5--5--5----5--5--5--5--|
------------------------------------|------------------------------------|


                                                              
------------------------------------|-----------------------||
------------------------------------|----------------------*||
--3----3--3--3--3--3----3--3--3--3--|----------------------*||
------------------------------------|--3----6----5----3-----||


                                                                       
------------------------|------------------------|--------------------|
------------------------|------------------------|--------------------|
--5--5--5--5------------|------------------------|--5-----------------|
------------------------|--5--5--5--5------------|-----------6--------|


                                                                       
--------------------|------------------------|------------------------|
--------------------|------------------------|------------------------|
--------------------|--5--5--5--5------------|------------------------|
--3--------5--------|------------------------|--5--5--5--5------------|


                                                               
--------------------|--------------------|--------------------|
--------------------|--------------------|--------------------|
--5-----------------|--------------------|-----------1--------|
-----------6--------|--3--------5--------|--3-----------------|


                                                               
--------------------|--------------------|--------------------|
--------------------|-----------3--------|-----------6--------|
-----------4--------|--5-----------------|--7-----------------|
--5-----------------|--------------------|--------------------|


                                                                                
-------------------|-------------------|-------------------|-------------------|
-------------------|-------------------|-------------------|-------------------|
-------------------|-------------------|-------------------|-------------------|
--5----------------|--3----------------|--1----------------|--0----------------|


                                                                                
-------------------|-------------------|-------------------|-------------------|
-------------------|-------------------|-------------------|-------------------|
-------------------|-------------------|-------------------|-------------------|
--5----------------|--3----------------|--1----------------|--0----------------|


                                                                           
------------------|------------------|------------------------------------|
------------------|------------------|------------------------------------|
------------------|------------------|------------------------------------|
------------------|------------------|--3----3--3--3--3--3----3--3--3--3--|


                                                                          
------------------------------------|------------------------------------|
------------------------------------|------------------------------------|
------------------------------3--4--|--5----5--5--5--5--5----5--5--5--5--|
--3----3--3--3--3--3----3--5--------|------------------------------------|

[ Tab from: http://www.guitartabs.cc/tabs/r/rainbow/wolf_to_the_moon_btab.html ]
                                                                     
----------------------|----------------------|----------------------|
-----------------7----|----------------------|----------------------|
--5----7----8---------|-----------------3----|--5----3---------3----|
----------------------|--3----5----6---------|------------6---------|


                                                            
------------------------------------|----------------------|
------------------------------------|-------7----5---------|
--5----5--5--5--5--5----5--5--5--5--|--5--------------8----|
------------------------------------|----------------------|


                                                                      
--------------------------------|------------------------------------|
--5----5--5--5--5--5----5-------|------------------------------------|
---------------------------5----|------------------------------3--4--|
--------------------------------|--3----3--3--3--3--3----3--6--------|


                                                                          
------------------------------------|------------------------------------|
------------------------------------|------------------------------------|
--5----5--5--5--5--5----5--5--5--5--|--5----5--5--5--5--5----5--5--5--5--|
------------------------------------|------------------------------------|


                                                                          
------------------------------------|------------------------------------|
------------------------------------|------------------------------------|
--3----3--3--3--3--3----3--3--3--3--|--3----3--3--3--3--3----3--3--3--3--|
------------------------------------|------------------------------------|


                                                                          
------------------------------------|------------------------------------|
------------------------------------|------------------------------------|
------------------------------------|------------------------------------|
--5----5--5--5--5--5----5--5--5--5--|--5----5--5--5--5--5----5--5--5--5--|


                                                                          
------------------------------------|------------------------------------|
------------------------------------|------------------------------------|
------------------------------------|------------------------------------|
--5----5--5--5--5--5----5--5--5--5--|--5----5--5--5--5--5----5--5--5--5--|


                                                
-----------------------|-----------------------|
-----------------------|-----------------------|
-----------------------|-----------------------|
--5--------6------5----|------3------1----0----|


                                                                          
------------------------------------|------------------------------------|
------------------------------------|------------------------------------|
------------------------------------|---------------------------0--1--2--|
--1----1--1--1--1--1----1--1--1--1--|--1----1--1--1--1--1----1-----------|


                                                                          
------------------------------------|------------------------------------|
------------------------------------|------------------------------------|
--3----3--3--3--3--3----3--3--3--3--|--3----3--3--3--3--3----3-----------|
------------------------------------|---------------------------0--1--2--|


                                                                   
-----------------------------|------------------------------------|
-----------------------------|------------------------------------|
------------------------0----|--1----1--1--1--1--1----1--1--1--1--|
--3----3--3--3--3--3---------|------------------------------------|


                                                                          
------------------------------------|------------------------------------|
------------------------------------|------------------------------------|
--5----5--5--5--5--5----5--5--5--5--|--5----5--5--5--5--5----5--5--5--5--|
------------------------------------|------------------------------------|


                                                                          
------------------------------------|------------------------------------|
------------------------------------|------------------------------------|
------------------------------------|---------------------------0--1--2--|
--1----1--1--1--1--1----1--1--1--1--|--1----1--1--1--1--1----1-----------|


                                                                          
------------------------------------|------------------------------------|
------------------------------------|------------------------------------|
--3----3--3--3--3--3----3--3--3--3--|--3----3--3--3--3--3----3-----------|
------------------------------------|---------------------------0--1--2--|


                                                                   
-----------------------------|------------------------------------|
-----------------------------|------------------------------------|
------------------------0----|--1----1--1--1--1--1----1--1--1--1--|
--3----3--3--3--3--3---------|------------------------------------|


                                                                          
------------------------------------|------------------------------------|
------------------------------------|------------------------------------|
--0----0--0--0--0--0----0--0--0--0--|--0----0--0--0--0--0----0--0--0--0--|
------------------------------------|------------------------------------|


                                                                          
------------------------------------|------------------------------------|
------------------------------------|------------------------------------|
--1----1--1--1--1--1----1--1--1--1--|--4----4--4--4--4--4----4--4--4--4--|
------------------------------------|------------------------------------|


                                                                          
------------------------------------|------------------------------------|
------------------------------------|------------------------------------|
--5----5--5--5--5--5----5--5--5--5--|--3----3--3--3--3--3----3--3--3--3--|
------------------------------------|------------------------------------|


                                                                          
------------------------------------|------------------------------------|
------------------------------------|------------------------------------|
--1----1--1--1--1--1----1--1--1--1--|--0----0--0--0--0--0----0--0--0--0--|
------------------------------------|------------------------------------|


                                                                          
------------------------------------|------------------------------------|
------------------------------------|------------------------------------|
--5----5--5--5--5--5----5--5--5--5--|--5----5--5--5--5--5----5--5--5--5--|
------------------------------------|------------------------------------|


                                                                          
------------------------------------|------------------------------------|
------------------------------------|------------------------------------|
--1----1--1--1--1--1----1--1--1--1--|--4----4--4--4--4--4----4--4--4--4--|
------------------------------------|------------------------------------|


                                                                          
------------------------------------|------------------------------------|
------------------------------------|------------------------------------|
--5----5--5--5--5--5----5--5--5--5--|--3----3--3--3--3--3----3--3--3--3--|
------------------------------------|------------------------------------|


                                                                             
-------------------|-------------------|------------------------------------|
-------------------|-------------------|------------------------------------|
--1----------------|--0----------------|--5----5--5--5--5--5----5--5--5--5--|
-------------------|-------------------|------------------------------------|


                                                                          
------------------------------------|------------------------------------|
------------------------------------|------------------------------------|
--5----5--5--5--5--5----5--5--5--5--|--3----3--3--3--3--3----3--3--3--3--|
------------------------------------|------------------------------------|


                                                                          
------------------------------------|------------------------------------|
------------------------------------|------------------------------------|
------------------------------------|--5----5--5--5--5--5----5--5--5--5--|
--5----5--5--5--5--5----5--5--5--5--|------------------------------------|


                                                                          
------------------------------------|------------------------------------|
------------------------------------|------------------------------------|
--5----5--5--5--5--5----5--5--5--5--|--3----3--3--3--3--3----3--3--3--3--|
------------------------------------|------------------------------------|


                                                                
----------------------||---------------------------------------|
----------------------||*--------------------------------------|
----------------------||*--5--5--5--5--5--5--5--5--5--5--5--5--|
--3----6----5----3----||---------------------------------------|


                                                                              
--------------------------------------|--------------------------------------|
--------------------------------------|--------------------------------------|
--5--5--5--5--5--5--5--5--5--5--5--5--|--3--3--3--3--3--3--3--3--3--3--3--3--|
--------------------------------------|--------------------------------------|


                                                             
---------------------------------------||-------------------|
--------------------------------------*||-------------------|
--------------------------------------*||-------------------|
--5--5--5--5--5--5--5--5--5--5--5--5---||--1----------------|


                                                       
-------------------|----------------------------------|
-------------------|----------------------------------|
-------------------|--5--5--5--5--5--5--5--5--5--5----|
--3----------------|----------------------------------|


                                                                      
----------------------------------|----------------------------------|
----------------------------------|----------------------------------|
--5--5--5--5--5--5--5--5--5--5----|--5--5--5--5--5--5--5--5--5--5----|
----------------------------------|----------------------------------|


                                                  
-----------------------------|------------------||
-----------------------------|------------------||
--5--5--5--5--5--5--5--------|------------------||
-----------------------------|------------------||
Comments