Rainbow - Temple Of The King Chords & Tabs

 

Temple Of The King Chords & Tabs

Rainbow Chords & Tabs

Version: 3 Type: Tab 0 ratings
1 star 2 stars 3 stars 4 stars 5 stars
comments

Temple Of The King Tab

   
Key: Am

Intro: 	Am / F / Am / F / Am / G /Dm/ Am

e|------------------------------|----------------------|
B|--5----3h5p3--1---3--1--2-----|--10--8---------------|
G|------------------------------|---------9--7---------|
D|------------------------------|---------------10--7--|
A|------------------------------|----------------------|
E|------------------------------|----------------------|

e|------------------------------|----------------------|
B|--3----1h3p1--0---1--0--------|------------0--1--3---|
G|------------------------2-----|--2--4---5------------|
D|------------------------------|----------------------|
A|------------------------------|----------------------|
E|------------------------------|----------------------|

e|------------------------------|----------------------|
B|--5----3h5p3--1---3--1--0-----|----------------------|
G|------------------------------|----------------------|
D|------------------------------|----------------------|
A|------------------------------|----------------------|
E|------------------------------|----------------------|

e|------------------------------|-------------------------|
B|--3----3h5p3--1---3--1--------|------------5--3---------|
G|------------------------2-----|--2--4---5--------4--(5)-|
D|------------------------------|-------------------------|
A|------------------------------|-------------------------|
E|------------------------------|-------------------------|


C		 G  
  One day in the year of the fox
	Dm		Am
Came a time remembered well
	 F
When the strong young man
	G
Of the rising sun heard the
Am
Tolling of the great black bell

(bass)
C		 G
  One day in the year of the fox when the
E	      Am	
Bell began to ring, it meant the
F		      G	
Time had come for the one to go to the
Am
Temple of the King

Dm
There in the middle of the circle, he stands
Am
Searching, Seeking,
      G		
With just one touch of his trembling hand
     Am	
The answer will be found

Dm
Daylight waits for the oldman's scream
Am	
Heaven, help me,
G	            Dm
Just like a rush of thousand wings 
    E
It shines upon the world
	F	G   	Am     
And the day has just begun

Instru:	Am / F / G / Am
        Am / G /Dm-F/ Am
(bass)
C		  G
  One day in the year of the fox
	Dm		Am
Came a time remembered well
	  F	
When the strong young man
	G
Of the rising sun heard the
Am
Tolling of the great black bell
[ Tab from: http://www.guitartabs.cc/tabs/r/rainbow/temple_of_the_king_tab_ver_3.html ]
(bass)
C		 G
  One day in the year of the fox when the
E	      Am	
Bell began to ring, it meant the
F		      G	
Time had come for the one to go to the
Am
Temple of the King

Dm
There in the middle of people he stands
Am
Seeking, feeling
	  G
Just one touch of the strong right hand
      E
He's gone, to the 
F      G      Am
Temple of the King

solo:
Am / F / Am / F / Am / G / Dm / E / Am / F / Am / F / Am / G / Dm / E


Solo:
e|-----------------------------------------------------------------------|
B|----8-----8-10--/13\------10---------13--15--17---17p15-13-15--13-15-15|
G|-------10--------------9-------12-14-----------------------------------|
D|7----------------------------------------------------------------------|
A|-----------------------------------------------------------------------|
E|-----------------------------------------------------------------------|

e|-----------------------------------------------------------------------|
B|-b17r15--12------12-13~---12-13---------------13--17--15-b17r15-13-----|
G|----------------------------------------12-14--------------------------|
D|---------------------------------15------------------------------------|
A|-----------------------------------------------------------------------|
E|-----------------------------------------------------------------------|

e|--------------------------------------------------------------------|
B|--------------12-13-15-15~-----13-15-17b18----17b18--r17b18r17b18r17|
G|---12-----14--------------------------------------------------------|
D|15----14------------------------------------------------------------|
A|--------------------------------------------------------------------|
E|--------------------------------------------------------------------|

Dm	                                                          
Far from the circle of the edge of the world
      Am	
He's smoking, wandering
G			
Thinking back of the stories he's told
       Am
Before he's gonna see
Dm
There in the middle of the circle he lies
Am
Heaven, help me
G		     Dm
All could see by the shine in his eyes
     E	
The answer has been found
Dm
Back with the people in the circle he stands
Am
Seeing, feeling
     G			    Dm			   E	
With just one touch of the strong right hand they know
	F      G      Am			
Of the Temple and the King 

instr: Am / F / G / Am
       Am / G /Dm-F/ Am	

arppegio: F - E - Am
Comments