Rainbow - Temple Of The King Chords & Tabs

 

Temple Of The King Chords & Tabs

Rainbow Chords & Tabs

Version: 1 Type: Tab 0 ratings
1 star 2 stars 3 stars 4 stars 5 stars
comments

Temple Of The King Tab

   
b=bend
r=release
v=vibrato
h=hammer

solo:
       v                          v               v
e|--------------------------------------------10-12---10-8-8/10------
b|---------------10-12b13r12-----10-----10-13------------------------
g|-2---12--10-12---------------9-----12------------------------------
d|-------------------------------------------------------------------
a|-------------------------------------------------------------------
e|-------------------------------------------------------------------
[ Tab from: http://www.guitartabs.cc/tabs/r/rainbow/temple_of_the_king_tab.html ]
                                                   v
e|-8--10-10---12/10-7---7-8--7-8/7----------8--/--12---10-/-12-8-----
b|---------------------------------6---8-10--------------------------
g|-------------------------------------------------------------------
d|-------------------------------------------------------------------
a|-------------------------------------------------------------------
e|-------------------------------------------------------------------

                        v
e|---------------------10------10-12-13b---12-h13(13)r12h13r12h13r12-
b|-6-8-/5-5---10-12-13------13---------------------------------------
g|-------------------------------------------------------------------
d|-------------------------------------------------------------------
a|-------------------------------------------------------------------
e|-------------------------------------------------------------------
Comments