Rainbow - Since Youve Been Gone Chords & Tabs

 

Since Youve Been Gone Chords & Tabs

Rainbow Chords & Tabs

Version: 2 Type: Tab 1 rating
1 star 2 stars 3 stars 4 stars 5 stars
comments

Since Youve Been Gone Tab

“Since You’ve Been Gone”
 By Rainbow 

This is an awesome song .... Great to do with a band .... Trust me this
is the best tab of this song on here so use it! I can't take credit for
it cuz i didnt transcribe it i just fixed up a little ... any ?'s or 
comments feel free to IM me my AIM screen name is KurtCobain145 and 
my e-mail address is kurt_cobain145@yahoo.com ... OK enough of my bull 
shit heres the song. 


Intro

 
E|------------------|---------------|------------------|----------------|
B|------------------|---------------|------------------|----------------|
G|-12-12-12---------|--9-9-9--------|-12-12-12------9--|----------------|
D|-12-12-12--12-12--|--9-9-9--10-10-|-12-12-12--12--9--|-10-10-10-12-12-|
A|-10-10-10--12-12--|--7-7-7--10-10-|-10-10-10--12--7--|-10-10-10-12-12-|
E|-----------10-10--|---------8--8--|-----------10-----|-8--8--8--10-10-|

Verse
   
E|-------------------2|--------------0|--------------0|--------------------0-|
B|----------------3---|------1-----0--|------1-----0--|-----2-----------3----|
G|------0-----2-------|----0-----0----|----0-----0----|--------2-----2-------|
D|----0----0----------|--2-----0------|--2-----2------|--2--------0----------|
A|--2-----------------|3--------------|3--------------|0---------------------|
E|3-------------------|---------------|---------------|----------------------|

Bridge
     
E|-----------------|-----------------|-----------------|----------------|
B|-----------------|-----------------|-----------------|----------------|
G|-8---------------|------2----------|-----------------|----------------|
D|-8---------------|----3---3--------|-1---------------|----------------|
A|-6---------------|--3--------------|----------3-1-0--|-0-3-4-5--------|
E|-----------------|-----------------|-----------------|----------------|

1st Solo
 
E|-----------------|--------------------|---------------------|------------|
B|-----------------|--------------------|---------------------|------7-----|
G|-4--------5------|-7----7-5h7p5-------|-4--4-5-4h5p4-2------|-0----------|
D|--------5----5---|--------------------|---------------------|------------|
A|-----------------|--------------------|---------------------|------------|
E|-----------------|--------------------|---------------------|------------|

E|---------------|-----------------------|---------------------------|----14|
B|-12----13------|-15-15-13h15p13--------|-12-13-12h13p12------------|------|
G|----12-----12--|-----------------------|-----------------------15--|-12---|
D|---------------|-----------------------|---------------------------|------|
A|---------------|-----------------------|---------------------------|------|
E|---------------|-----------------------|---------------------------|------|
[ Tab from: http://www.guitartabs.cc/tabs/r/rainbow/since_youve_been_gone_tab_ver_2.html ]
     
E|------------------|
B|------------------|
G|------------------|
D|-7-7-7----7-7-----|
A|-5-5-5----5-5-----|
E|------------------|


E|----------------|-----------------|-----------------|---------------|
B|----------------|-----------------|-----------------|---------------|
G|-14-14-14-------|-11-11-11--------|-14-14-14--------|---------------|
D|-14-14-14-14-14-|-11-11-11-12-12--|-14-14-14--14-11-|-12-12-12-14-14|
A|-12-12-12-14-14-|-9--9--9--12-12--|-12-12-12--14-11-|-12-12-12-14-14|
E|----------12-12-|----------10-10--|-----------12-9--|-10-10-10-12-12|


End Solo
 
E|---------------|----------------|-------------------|-------0----------|
B|-8-----5-------|-----5----------|----5--------------|-----5------------|
G|----7-----7--6-|--4----4--2-4---|-4----4-4-2-0--2---|-2-4------4-4-2---|
D|---------------|----------------|-------------------|----------------4-|
A|---------------|----------------|-------------------|------------------|
E----------------|----------------|-------------------|------------------|
 
E|---------------------------|-----5-3-0---0-----|------------------------|
B|---------------------------|-----------3-------|------------------------|
G|-2-----5-4-2----4-4-4------|--4----------------|-2h4p2-0-----2-4h6-4----|
D|----4----------4-----------|-------------------|----------4-------------|
A|---------------------------|-------------------|------------------------|
E|---------------------------|-------------------|------------------------|

 

E|-----------------|----5-------5-------7--------|-----10-9-10p9----9-------|
B|----5-5--5h7p5---|5h7----5h7-----7h9----7-7p5--|10-------------12----12-10|
G|7-6------------7-|-----------------------------|--------------------------|
D|-----------------|-----------------------------|--------------------------|
A|-----------------|-----------------------------|--------------------------|
E|-----------------|-----------------------------|--------------------------|

 
E|----------------------|-------------------------------|--------------12----|
B|-12-12-12-10-12-12----|-12-12-12-10h12p10----10-------|-10--------------10-|
G|----------------------|---------------------------11--|----11s9-9s13-------|
D|----------------------|-------------------------------|--------------------|
A|----------------------|-------------------------------|--------------------|
E|----------------------|-------------------------------|--------------------|


E|------9---------------------|----5----7-9-5-|----------------------|
B|-12-----12-12p10---10-------|-5-----5-------|----------------------|
G|----------------------9-----|---------------|----------------------|
D|----------------------------|---------------|----------------------|
A|----------------------------|---------------|----------------------|
E|----------------------------|---------------|----------------------|


Take care .... "Love Peace And Music" Israel Garcia 
Comments