Rainbow - Since Youve Been Gone Chords & Tabs

 

Since Youve Been Gone Chords & Tabs

Rainbow Chords & Tabs

Version: 2 Type: Bass Tab 0 ratings
1 star 2 stars 3 stars 4 stars 5 stars
comments

Since Youve Been Gone Bass Tab

Since You've Been Gone--- By Richie Blackmores Rainbow

This is my first try at doing a Tab.  I hope you find it useful.

/= SLIDE

INTRO

G-----------------------------------------------|
D-----------------------------------------------|
A------------5-5--7-7-7--3-3------5-7-3-3-5-5---|
E----12/3-3-3----------------3-3-3--------------|


G-----------------------------------------------|
D-----------------------------------------------|
A---------5-5--7-7-7--3-3--------5-7-3/5--------|
E----3-3-3------------------3-3-3---------------|


G---------------------------------------------------------------|
D----5--4--2----------------------5--4--2--------------5--4--2--|
A------------5--3--2--0--2--3--5-----------5--3--2--O-----------|
E---------------------------------------------------------------|

This part I'm not sure of, try it and change it if you like:
[ Tab from: http://www.guitartabs.cc/tabs/r/rainbow/since_youve_been_gone_btab_ver_2.html ]
G-------------------------------------------------------|
D------------3--5--3------------------------------------|
A----5----5-----------5----5-3-2-2-3-5------------------|
E-------------------------------------------------------|


Then It goes back to the beginning again for the chorus, like this ....

"Since you've been gone, since you've been gone...."
G-------------------------------------------------|
D-------------------------------------------------|
A------------5-5--7-7-7--3-3--------5-7-3-3-5-5---|
E----3-3-3--------------------3-3-3---------------|

And then again with this.....

G---------------------------------------------------------------|
D----5--4--2----------------------5--4--2--------------5--4--2--|
A------------5--3--2--0--2--3--5-----------5--3--2--O-----------|
E---------------------------------------------------------------|

It's really not a hard song to play, and it's really fun to do, my band
covers it, and it just pretty much changes back and forth throughout the
song.
This is the first time I've ever tabbed a song out so, I hope it will be
of some use to you.
Comments