Rainbow - Man On The Silver Mountain Chords & Tabs

 

Man On The Silver Mountain Chords & Tabs

Rainbow Chords & Tabs

Version: 1 Type: Tab 2 ratings
1 star 2 stars 3 stars 4 stars 5 stars
comments

Man On The Silver Mountain Tab

SONG TITLE:  MAN ON THE SILVER MOUNTAIN

ARTIST:  RAINBOW


[ Tab from: http://www.guitartabs.cc/tabs/r/rainbow/man_on_the_silver_mountain_tab.html ]
  --------------------------------------------------------------------     
-----------------------------------------------------------------------
------------------3-----------------5--3--------------3--------------
---------5--3--5--3--3--5--5--3--5--5--3-----5--3--5--3--3--5--------
---------5--3--5-----3--5--5--3--5-----------5--3--5-----3--5-------  
-------5----------------------------------5-------------------------- 

------------------------------------------------------------------------   
---------------------------------------------------------------------
----------------------------------------------------------------------
--------5--3--1------------------------------------------------------
--------5--3--1------------------------------------------------------    
--------------------------------------------------------------------

TAB BY FRANK
HIYAHAPPY1@AOL.COM

       
        



     
Comments