Rainbow - Cant Let You Go Chords & Tabs

 

Cant Let You Go Chords & Tabs

Rainbow Chords & Tabs

Version: 1 Type: Tab 0 ratings
1 star 2 stars 3 stars 4 stars 5 stars
comments

Cant Let You Go Tab

   
INTRO

     C#m                    C#m  
------------------------------------------------
------------------------------------------------
------------------------------------------------
------------------------------------------------
------7-9-7--------------7-9----9-7-----------  
--9-9--------7-9---9-9------9-------9-----------


Rif.-2

------------------------------------------------
------------------------------------------------
------------------------------------------------
------------------------------------------------
----6-----9-----11------------------------------
----4-----7----- 9-------------------------- ---
    Abm    B     C#m  


Rif.-3

-----------------------------------------------
-----------------------------------------------
-----------------------------------------------
-----------------------------------------------
----6-----8-----9------11---------------- ---- 
----4-----6-----7-------9----------------------
    Abm   A#     B      C#m 


[ Tab from: http://www.guitartabs.cc/tabs/r/rainbow/cant_let_you_go_tab.html ]
INTRO
 C#m    
Day after day I keep waking up
                          B
To find that you're slipping away
 C#m 
Night after night
                            B      Abm B C#m  
I can't fight the emptiness inside

 C#m 
Nothing I can say
                             B
Now I know you're turning me away
 C#m 
You're wearing a disguise

You don't have to hide cause
  F#m
The truth is in your eyes tonight

Em                F#m
I don't want to live a lie
Em                 F#m
But I don't want to say goodbye

 Abm  Rif.3 C#m         B                    Em
And I can't  let you go even though it's over
Abm  Rif.3 C#m        B      
I just can't let you go
                             Em
Though your love is growing colder

One look in my eyes and you're realize
That you got my heart in your hands
Won't you let me know sometimes more
Where did we do wrong?

I don't want to fight
All I want to do is try to understand
I'm reaching out for you baby
What can I do
I've been holding on so long

I don't want to live a lie
But I don't want to say goodbye
I can't let you go
Even though it's over
I just can't let you go
I feel your love is growing colder

I don't want to live a lie
But I don't want to say goodbye
I want you by my side
And I can't let you go
Even though it's over
I just can't let you go
I feel your love is growing colder
I can't let you go even though it's over.

WRITEME: alpoeta@terra.com.mx
Comments