Raging Speedhorn - Thumper Chords & Tabs

 

Thumper Chords & Tabs

Raging Speedhorn Chords & Tabs

Version: 2 Type: Tab 0 ratings
1 star 2 stars 3 stars 4 stars 5 stars
comments

Thumper Tab

   
Raging Speedhorn,Thumper.
Tabbed by mark kerry,roger.kerry@which.net.
  
Band: Raging Speedhorn
Song: Thumper
Album: Raging Speedhorn
Tuning: low to high - c# g# c# f# a# d#
Transcribed by Mark Kerry
e-mail: Roger.kerry@which.net

key

b = bend
r = release
~ = vibrato
/ = slide up
[ Tab from: http://www.guitartabs.cc/tabs/r/raging_speedhorn/thumper_tab_ver_2.html ]
riff1 intro (guitar 1)
|------------------------------------------------------------|
|------------------------------------------------------------|
|------------------------------------------------------------|
|------------------------------------------------------------|
|------------------------------------------------------------|
|--0-0-2br0-0--3br0-0---5b~~---------------------------------|
                                                              
riff2 Verse (guitar 1&2)
|------------------------------------------------------------|
|------------------------------------------------------------|
|------------------------------------------------------------|
|------------------------------------------------------------|
|--0-0------------------6------------------------------------|
|--0-0-2br0-0--3br0-0---6------------------------------------|
                                                             
riff3 chorus (guitar 1&2)
|------------------------------------------------------------|
|------------------------------------------------------------|
|-5\4--4-4-4--4-5\4--4-4-----------5\4--4-4-4--4-5\4--4-4----|
|-5\4--4-4-4--4-5\4--4-4-----------5\4--4-4-4--4-5\4--4-4----|
|-3\2--2-2-2--2-3\2--2-2--3--3--3--3\2--2-2-2--2-3\2--2-2--4-|
|-------------------------3--3--3--------------------------4-|
                                                              
riff4 bridge (guitar 1&2)
|------------------------------------------------------------|
|------------------------------------------------------------|
|------------------------------------------------------------|
|------------------------------------------------------------|
|--0-0--3/6-6-5--5-5---5-5-5---------------------------------|
|--0-0--3/6-6-5--5-5---5-5-5---------------------------------|
                                                              

Riff1x4        
Riff2x12        
Riff3x4
Riff2x8
Riff3x4
Bass               
Riff4x8            
Riff3x4                              
Riff1x2        
Riff2x12 
:: Ultimate Guitar Archive :: 
http://www.ultimate-guitar.com 

Comments