Raging Speedhorn - Thumper Chords & Tabs

 

Thumper Chords & Tabs

Raging Speedhorn Chords & Tabs

Version: 1 Type: Tab 0 ratings
1 star 2 stars 3 stars 4 stars 5 stars
comments

Thumper Tab

   
tab: Song: Thumper 
Band: Raging Speedhorn 

Tuning: Drop-Cis 


Riff 1 
|---------------------------------| 
|---------------------------------| 
|---------------------------------| 
|---------------------------------| 
|---------------------------------| 
|--0--0--3-0--0--5-0--0--6--| 
             p          p 

Riff 1a 
|---------------------------------| 
|---------------------------------| 
|---------------------------------| 
|--0--0--3-0--0--5-0--0--6--| 
|--0--0--3-0--0--5-0--0--6--| 
|--0--0--3-0--0--5-0--0--6--| 
             p          p 

Riff 2 
|----------------------------------------------|--------------------------------------| 
|----------------------------------------------|--------------------------------------| 
|----------------------------------------------|--------------------------------------| 
|--9-9-9-9-9-9-9-9-9-9-9-9--3--3--3--|--9-9-9-9-9-9-9-9-9-9-9-9--3--| 
|--9-9-9-9-9-9-9-9-9-9-9-9--3--3--3--|--9-9-9-9-9-9-9-9-9-9-9-9--3--| 
|--9-9-9-9-9-9-9-9-9-9-9-9--3--3--3--|--9-9-9-9-9-9-9-9-9-9-9-9--3--| 
[ Tab from: http://www.guitartabs.cc/tabs/r/raging_speedhorn/thumper_tab.html ]
Riff 3 
|-------------------------------| 
|-------------------------------| 
|-------------------------------| 
|--0--0--6--6--5--5--3--3--| 
|--0--0--6--6--5--5--3--3--| 
|--0--0--6--6--5--5--3--3--| 

______________________________________________________________________ 

Riff 1     4x 
Riff 1a  12x 
Riff 2     2x 
Riff 1a   8x 
Riff 2     2x 
-- drums + bass -- 
Riff 3     8x 
Riff 2     2x 
Riff 1     2x 
Riff 1a   8x 

okay, i'm not really sure about riff 2, but it sounds okay and i'll try to figure it out as soon as possible. 

Transcribed by: Nick Fairchild
E-mail: Nick_f@btinternet.com

E-mail any mistsakes! Enjoy..
Tuning: db ab db
Lots of gain.

Intro:

db-----------------
ab----------------- X4
db--00--30--50--6-

Verse:

db--00--30--50--6--
ab--00--30--50--6-- X12
db--00--30--50--6-

Chorus:

db--10-10-9-10-10-9-10-10-9--4--
ab--10-10-9-10-10-9-10-10-9--4-- X4
db--10-10-9-10-10-9-10-10-9-4--

Verse
Chorus

Then there's a solo of some sort that I don't know if its bass or muted guitar.

Bridge:

db--00--44--33-0--22--
ab--00--44--33-0--22-- X8
db--00--44--33-0--22--

Chorus
Intro X2
Verse X8

Ends by sliding up the board.

Comments