Raging Speedhorn - The Gush Chords & Tabs

 

The Gush Chords & Tabs

Raging Speedhorn Chords & Tabs

Version: 1 Type: Tab 0 ratings
1 star 2 stars 3 stars 4 stars 5 stars
comments

The Gush Tab

Bass and Guitar
[ Tab from: http://www.guitartabs.cc/tabs/r/raging_speedhorn/the_gush_tab.html ]
Intro - Bass line 
D  --------------------------------------------------------------------------------
A  --------------------3----5------------------------------------------------------
D  ---0-----3----5-------------5----3------0-----3----5----3------5-6-5-----
Intro - Guitar (wah wah optional)
E  --------------------------------------------------------------------------------
B  ---------------------------------------------------------------------------------
G  ------10-~~~~~-----5-----7------------------------------------------------
D  ----- 10-~~~~~-----5-----7-------------------------------------------------
A  ------8-~~~~~~-----3-----5-------------------------------------------------
D  ----------------------------------------------------------------------------------
Heavy Intro
D   ---0----3----5----10----12---3---5---3---5---3---5-------------------------------
A   ---0----3----5----10----12---3---5---3---5---3---5-------------------------------
D   ---0----3----5----10----12---3---5---3---5---3---5-------------------------------
Verse
E  --------------------------------------------------------------------------------
B  ---------------------------------------------------------------------------------
G  ------10-~~~~~-----5-----7------------------------------------------------
D  ----- 10-~~~~~-----5-----7-------------------------------------------------
A  ------8-~~~~~~-----3-----5-------------------------------------------------
D  ----------------------------------------------------------------------------------
Chorus
D   ---0----3----5----10----12---3---5---3---5---3---5-------------------------------
A   ---0----3----5----10----12---3---5---3---5---3---5------------------------------ 
D   ---0----3----5----10----12---3---5---3---5---3---5-------------------------------
Verse
E  --------------------------------------------------------------------------------
B  ---------------------------------------------------------------------------------
G  ------10-~~~~~-----5-----7------10-~~~~~---12--~~~~~----7------------
D  ----- 10-~~~~~-----5-----7------10-~~~~~---12-~~~~~~----7------------
A  ------8-~~~~~~----3-----5-------8-~~~~-----10-~~~~~-----5------------
D  ----------------------------------------------------------------------------------
Chorus
D   ---0----3----5----10----12---3---5---3---5---3---5-----------------------------------------------
A   ---0----3----5----10----12---3---5---3---5---3---5-----------------------------------------------  
D   ---0----3----5----10----12---3---5---3---5---3---5-----------------------------------------------
Verse
E  --------------------------------------------------------------------------------
B  ---------------------------------------------------------------------------------
G  ------10-~~~~~-----5-----7------------------------------------------------
D  ----- 10-~~~~~-----5-----7-------------------------------------------------
A  ------8-~~~~~~-----3-----5-------------------------------------------------
D  ----------------------------------------------------------------------------------
Interlude
E   ---------------------------------------------------------------------------------
B   ---------------------------------------------------------------------------------
G   ---------------------------------------------------------------------------------
D   -------------------------------------------------3-------------------------------
A  ---5 5--3--5----5-5--3--5----5-5--3--5--5-----------------------------------------
D  ----------------------------------------------------------------------------------
Heavy Interlude
E   ---------------------------------------------------------------------------------
B   ---------------------------------------------------------------------------------
G   ---------------------------------------------------------------------------------
D  -----10--10---8---10-----10--10---8---10-----10--10---8---10-----10--13-----------
A  -----10--10---8---10-----10--10---8---10-----10--10---8---10-----10--13-----------
D  -----10--10---8---10-----10--10---8---10-----10--10---8---10-----10--13-----------
Comments