Raging Speedhorn - The Gush Chords & Tabs

 

The Gush Chords & Tabs

Raging Speedhorn Chords & Tabs

Version: 1 Type: Bass Tab 0 ratings
1 star 2 stars 3 stars 4 stars 5 stars
comments

The Gush Bass Tab

   
Aging Speedhorn - The Gush
Submitted By: Misery
EMail: kaiowas@swirve.com


Intro
G|-----------------------------------||
D|-----------------------------------||
A|-----------------------------------||
C|--12\------------------------------||

MAIN RIFF
G|-----------------------------------||
D|-----------------------------------||
A|---------4-------------------------||
C|-0-3-5-0---5-0-3-0-0-3-0-0-5-------||
[ Tab from: http://www.guitartabs.cc/tabs/r/raging_speedhorn/the_gush_btab.html ]
CHORUS
G|
D|
A|----------4------------------------||
C|-0-3-5-0-----0-5---0-5---0-5p3-----||

BREAKDOWN
G|-----------------------------------||
D|-----------------------------------||
A|-----------------------------------||
C|-0-0-3-5---0-0-3-5---0-0-3-5---0-3-||

BRIDGE
G|-----------------------------------||
D|-----------------------------------||
A|-----------------------------------||
C|-3-3-3-3-3-3-3-3-5-5-5-5-5-5-5-5---||
Comments