Raging Speedhorn - High Whore Chords & Tabs

 

High Whore Chords & Tabs

Raging Speedhorn Chords & Tabs

Version: 1 Type: Tab 0 ratings
1 star 2 stars 3 stars 4 stars 5 stars
comments

High Whore Tab

   
Raging Speedhorn,High Whore.
Tabbed by mark kerry,roger.kerry@which.net.
  
Band: Raging Speedhorn
Song: High Whore
Album: Raging Speedhorn
Tuning: low to high - c# g# c# f# a# d#
Transcribed by Mark Kerry
e-mail: Roger.kerry@which.net

key

b = bend
r = release



riff 1 intro (guitar 1)
|-----------------------------------------------------------------|
|-----------------------------------------------------------------|
|-----------------------------------------------------------------|
|---------7-------------------------------------------------------|
|---------5-------------------------------------------------------|
|---0--0------0--5-4-3--0--2-3-2----------------------------------|

riff 2 verse (guitar 1&2)
|-----------------------------------------------------------------|
|-----------------------------------------------------------------|
|---------7-------------------------------------------------------|
|---------7-------------------------------------------------------|
|---0--0--5---0--5-4-3--0--2-3-2----------------------------------|
|---0--0------0--5-4-3--0--2-3-2----------------------------------|

verse 2b verse (guitar 1&2)
|-----------------------------------------------------------------|
|-----------------------------------------------------------------|
|---------7-------------------------------------------------------|
|---------7-------------------------------------------------------|
|---0--0--5---0--4-4-4-4-5-5-5-5----------------------------------|
|---0--0------0--4-4-4-4-5-5-5-5----------------------------------|

riff 3 chorus (guitar 1&2)
|-----------------------------------------------------------------|
|-----------------------------------------------------------------|
|-----------------8-8-8-8-8-8-------------------------------------|
|-----------------8-8-8-8-8-8-------------------------------------|
|---0---0--0-0--0-6-6-6-6-6-6-------------------------------------|
|---0---0--0-0--0-------------------------------------------------|
[ Tab from: http://www.guitartabs.cc/tabs/r/raging_speedhorn/high_whore_tab.html ]
riff 4 bridge (guitar 1)
|-----------------------------------------------------------------|
|-----------------------------------------------------------------|
|-----------------------------------------------------------------|
|-----------------------------------------------------------------|
|-----------------------------------------------------------------|
|---0--0-5-5--5--0--0-5-5--5--0--0-5-5--5--5-5-5-5-5-4-4-4--------|

riff 4b bridge (guitar 1&2)
|-----------------------------------------------------------------|
|-----------------------------------------------------------------|
|-----------------------------------------------------------------|
|-----------------------------------------------------------------|
|---0--0-5-5--5--0--0-5-5--5--0--0-5-5--5--5-5-5-5-5-4-4-4--------|
|---0--0-5-5--5--0--0-5-5--5--0--0-5-5--5--5-5-5-5-5-4-4-4--------|

riff5 solo rythem (guitar 1)
|-----------------------------------------------------------------|
|-----------------------------------------------------------------|
|-----------------------------------------------------------------|
|-----------------------------------------------------------------|
|-0-0-0-0-0-0-0-0-0-0-0-0-0-0-0-0-5-5-5-5-5-5-5-5-5-5-5-5-5-5-5-5-|
|-0-0-0-0-0-0-0-0-0-0-0-0-0-0-0-0-5-5-5-5-5-5-5-5-5-5-5-5-5-5-5-5-|

riff 6 solo (guitar 2)
|-----------------------------------------------------------------|
|-7-7-7-7-7-7-7-7-7-7-7-7-7-7-7-7-9-9-9-9-9-9-9-9b9b9b9b9r9r9r9-9-|
|-5-5-5-5-5-5-5-5-5-5-5-5-5-5-5-5-7-7-7-7-7-7-7-7b7b7b7b7r7r7r7-7-|
|-----------------------------------------------------------------|
|-----------------------------------------------------------------|
|-----------------------------------------------------------------|

riff 7 outro (guitar 1&2)
|-----------------------------------------------------------------|
|-----------------------------------------------------------------|
|------5----------------3-----------------------------------------|
|------5----------------3-----------------------------------------|
|---0--3-4--5--4--1--2--1--1--------------------------------------|
|---0----4--5--4--1--2-----1--b--r--------------------------------| 
:: Ultimate Guitar Archive :: 
http://www.ultimate-guitar.com 

Comments