Raging Speedhorn - Gush Chords & Tabs

 

Gush Chords & Tabs

Raging Speedhorn Chords & Tabs

Version: 1 Type: Tab 0 ratings
1 star 2 stars 3 stars 4 stars 5 stars
comments

Gush Tab

   
Raging speedhorn- the gush
TABBED BY MARK AXON
well ive finally done it.RSH are one of the best britsh bands around.
so go and buy the first album.

DROP D
drop d. the real tuning is tuned down to c# g# c# f# a# d#. but drop d
is easier to tune

INTRO

d-----14------|
a-----14------|
D-----14------|
[ Tab from: http://www.guitartabs.cc/tabs/r/raging_speedhorn/gush_tab.html ]
d-----14-------9-----------11-----------------|
a-----14-------9-----------11-----------------|
D-----14-------9-----------11-----------------|
Riff A
d-----14-------9---------9/11--------------11-|
a-----14-------9---------9/11--------------11-|
D-----14-------9---------9/11--------------11-|
Riff B
d------------------------|
a-----0-0-0-3h5----------| repeat 7x 
D-----0-0-0----0-5-6-3-3-| 

Verse
Riff A 2x

Chorus
Riff B 8x

Verse
Riff A 2x

Chorus
Riff B 8x

Verse
Riff A 2x

break

d--------------------------------------|
a----3h5-3h5-3h5------3h5-3h5-3h5------| repeat till end
D---0---0---0---0-14-0---0---0---0-10--|

now please dont ask me to put the lyrics up okay.

Comments