Raging Speedhorn - Gush Live Chords & Tabs

 

Gush Live Chords & Tabs

Raging Speedhorn Chords & Tabs

Version: 1 Type: Tab 0 ratings
1 star 2 stars 3 stars 4 stars 5 stars
comments

Gush Live Tab

   
RAGING SPEEDHORN-THE GUSH
TABBED BY CHRIS KELLETT

TUNING:  DROP D

Intro.

A-----35----------------35-----------
D-035--0535353--035--05305305.

D--10------~--10--12--12--10--12--12--
A--8-------~--8----10--12--8----10--12--
D--8-------~------------12-------------12--

(Hold first note and bend after about 5 seconds)

Chorus (hard and fast with lots of distortion).

D---------3-5--------------------
A-0-3-5-3-5-0-5-3-5-3-5-3---
D-0-3-5------0-5-3-5-3-5-3--- (X6)

Verse

D-10--12--12--10--12--12--
A-8----10--12--8----10--12--
D------------12-------------12--(X2)

chorus
[ Tab from: http://www.guitartabs.cc/tabs/r/raging_speedhorn/gush_live_tab.html ]
D---------3-5---------------------------3-5--------------------
A-0-3-5-3-5-0-5-3-5-3-5-3---0-3-5-3-5-0-5-3-0-5-3-0-5
D-0-3-5------0-5-3-5-3-5-3---0-3-5-3-5-0-5-3-0-5-3-0-5 (X4)

verse

D-10--12--12--10--12--12------(Hold last chord)
A-8----10--12--8----10--12-----
D------------12-------------12-----(X2)

Bridge (interlude)

D-0-0-11/12--0-0-11/12--0-0-11/12--0-0-15---(X2)----

A-0-0----------0-0----------0-0----------0-0--
D-0-0-11/12--0-0-11/12--0-0-11/12--0-0-15---(X2)---

A-0-0----------0-0----------0-0-----------0--15---
D-0-0-11/12--0-0-11/12--0-0-11/12---0-15---(X2)--

A-0-0-11/12--0-0-11/12--0-0-11/12---0-15---
D-0-0-11/12--0-0-11/12--0-0-11/12---0-15---  (play until the end with chorus after 2 rounds playing this on its own)


Base line

D- 8-0-0-3-5-0-5-3-5-3-5-3


if any one has tabs for ill nino-if u still hate me please send them to chopsuey62@hotmail.com along with any queries/corrections
Comments