Raging Speedhorn - Fuck The Voodoo Man Chords & Tabs

 

Fuck The Voodoo Man Chords & Tabs

Raging Speedhorn Chords & Tabs

Version: 2 Type: Tab 0 ratings
1 star 2 stars 3 stars 4 stars 5 stars
comments

Fuck The Voodoo Man Tab

Artist: Raging Speedhorn
Track: F*** The Voodoo Man
Album: We'll Be Dead Tomorrow 
Tabbed By: Stuart [email: prodigal_blues@hotmail.com]
Tuning: Drop D

Intro
|--------------------------------------------|
|--------------------------------------------|
|--------------------------------------------| 
|--------------------------------------------| 
|-0--12-10---12-10---12-10---12-10---0-10-12-|
|-0--12-10---12-10---12-10---12-10---0-10-12-|
[ Tab from: http://www.guitartabs.cc/tabs/r/raging_speedhorn/fuck_the_voodoo_man_tab_ver_2.html ]
Main Riff
|----------------------------------------| 
|----------------------------------------| 
|----------------------------------------| 
|----------------------------------------| 
|-0--12-10---0-12-10---0-12-10---0-10-12-| 
|-0--12-10---0-12-10---0-12-10---0-10-12-|

Chorus
|-------------------------|
|-------------------------|
|-------------------------|
|-------------------------| 
|-0-7-6-0--3-5-3-0---7--6-| 
|-0-7-6-0--3-5-3-0---7--6-|

End
|------------------------|
|------------------------|
|--5-----------5---------|
|--5---6---0---5----6----|
|--3---6---0---3----6----|
|------6---0--------6----|

This Is 100% Right..
Trust Me..
Comments