Raging Speedhorn - Dungeon Whippet Chords & Tabs

 

Dungeon Whippet Chords & Tabs

Raging Speedhorn Chords & Tabs

Version: 1 Type: Tab 0 ratings
1 star 2 stars 3 stars 4 stars 5 stars
comments

Dungeon Whippet Tab

   
Raging Speedhorn,Dungeon Whippet.
Tabbed by mark kerry,roger.kerry@which.net.
  
Band: Raging Speedhorn
Song: Dungeon Whippet
Album: Raging Speedhorn
Tuning: low to high - c# g# c# f# a# d#
Transcribed by Mark Kerry
e-mail: Roger.kerry@which.net

key

b = bend
r = release
h = hammer on
/ = slide up


riff 1a verse (guitar 1&2)
|----------------------------------------|
|----------------------------------------|
|---6-6-6--5--2--------------------------|
|---6-6-6--5--2--------------------------|
|---4-4-4--3--0--------------------------|
|----------------------------------------|

riff 1b verse (guitar 1&2)
|----------------------------------------|
|----------------------------------------|
|----------------------------------------|
|----------------------------------------|
|---4/5-5-5--5-5-5-----------------------|
|---4/5-5-5--5-5-5-----------------------|
[ Tab from: http://www.guitartabs.cc/tabs/r/raging_speedhorn/dungeon_whippet_tab.html ]
riff 2a verse (guitar 1&2)
|----------------------------------------|
|----------------------------------------|
|----------------------------------------|
|----------------------------------------|
|----------3---3-------------------------|
|---3h4----------------------------------|

riff 2b verse (guitar 1&2)
|----------------------------------------|
|----------------------------------------|
|----------------------------------------|
|----------------------------------------|
|----------4---4-------------------------|
|---3h4----------------------------------|
       
riff 3 fill (guitar 1&2)
|----------------------------------------|
|----------------------------------------|
|---6---6---6---6------------------------|
|---6---6---6---6------------------------|
|---4---4---4---4------------------------|
|----------------------------------------|

riff 4 bridge (guitar 1&2)
|----------------------------------------|
|----------------------------------------|
|----------------------------------------|
|----------------------------------------|
|---0--0-0-2br0-0--0-0--3br0-0--5--5-3---|
|---0--0-0-2br0-0--0-0--3br0-0--5--5-3---| 
:: Ultimate Guitar Archive :: 
http://www.ultimate-guitar.com 

Comments