Raging Speedhorn - Death Row Dogs Chords & Tabs

 

Death Row Dogs Chords & Tabs

Raging Speedhorn Chords & Tabs

Version: 1 Type: Tab 0 ratings
1 star 2 stars 3 stars 4 stars 5 stars
comments

Death Row Dogs Tab

   
Raging Speedhorn,Death Row Dogs.
Tabbed by mark kerry,roger.kerry@which.net.
  
Band: Raging Speedhorn
Song: Death Row Dogs
Album: Raging Speedhorn
Tuning: low to high - c# g# c# f# a# d#
Transcribed by Mark Kerry
e-mail: roger.kerry@which.net

key

/ = slide up
pm = palm mute
h = hammer on
~ = vibrato


riff 1 main riff (guitar 1&2)
|----------------------------------|
|----------------------------------|
|----------------------------------|
|----------------------------------|
|---0--3--0--3-/-7--3--------------|
|---0--3--0--3-/-7--3--------------|

riff 1a main riff (guitar 1&2) 
|----------------------------------|
|----------------------------------|
|----------------------------------|
|----------------------------------|
|---0--0--0------------------------|
|---0--0--0------------------------|
pm  -  -  -
[ Tab from: http://www.guitartabs.cc/tabs/r/raging_speedhorn/death_row_dogs_tab.html ]
riff 2 fill (guitar 1)
|----------------------------------|
|----------------------------------|
|----------------------------------|
|----------------------------------|
|----------------------------------|
|---2~~~~~~2~~~~~~2~~~~~~2~~~~~~---|

riff 2a fill (guitar 1)
|----------------------------------|
|----------------------------------|
|----------------------------------|
|----------------------------------|
|----------------------------------|
|---1~~~~~~1~~~~~~1~~~~~~1~~~~~~---|

riff 3a main riff variation (guitar 1&2)
|----------------------------------|
|----------------------------------|
|----------------------------------|
|----------------------------------|
|---0--0--0---0---0---0---0--0-----|
|---0--0--0---0---0---0---0--0-----|

riff 3b main riff variation (guitar 1&2)
|----------------------------------|
|----------------------------------|
|----------------------------------|
|----------------------------------|
|---3-/-7---6---0---6-----7----3---|
|---3-/-7---6---0---6-----7----3---|

riff 4 bridge (guitar 1&2)
|----------------------------------|
|----------------------------------|
|----------------------------------|
|----------------------------------|
|---5h4--4-5h4--4-5---0--2--3------|
|---5h4--4-5h4--4-5---0--2--3------|
 
:: Ultimate Guitar Archive :: 
http://www.ultimate-guitar.com 

Comments