Rage Against The Machine - Zapatas Blood Chords & Tabs

 

Zapatas Blood Chords & Tabs

Rage Against The Machine Chords & Tabs

Version: 1 Type: Bass Tab 0 ratings
1 star 2 stars 3 stars 4 stars 5 stars
comments

Zapatas Blood Bass Tab

Title:   Zapata's Blood
Artist:  Rage Against The Machine
From:    Vietnow Single

Main:    repeat until end
G:--------------------------------|
D:--------------------------------|
A:-----------0---5---0--------8---|
E:---0---5---------------10-------|
[ Tab from: http://www.guitartabs.cc/tabs/r/rage_against_the_machine/zapatas_blood_btab.html ]
Alteration of Main:
G:--------------------------------|
D:--------------------------------|
A:-----------0---5---0---5---8----|
E:---0---5------------------------|

End:   
G:----------------|
D:----------------|
A:---5--------8---|
E:----------------|

Tabbed by:  Art IV
cerprogger@hotmail.com
August of 1998

______________________________________________________
Comments