Rage Against The Machine - Wake Up Chords & Tabs

 

Wake Up Chords & Tabs

Rage Against The Machine Chords & Tabs

Version: 6 Type: Tab 0 ratings
1 star 2 stars 3 stars 4 stars 5 stars
comments

Wake Up Tab

   
FROM: Kevin Dole (kdole@provide.net)

Song: Wake Up
Band: Rage Against the Machine
Album: Rage Againt the Machine

The version of this song that I found on OLGA was pitifully 
incomplete. So here it is folks, my nearly complete version of
"Wake Up." There are two guitar parts laid on top of each other,
but I only tabbed out the first, the most important part of the 
second is during the verse and that's just mainly funky-wah type
staggering. 
(I skipped the second solo, you can do that on you own.  good luck)

DROP D TUNING

INTRO

It goes something like this.  Strum the opening chord and let 
it ring.  Don't actually stagger the "X" bar, just kind of pause.  
Main part repeats over and over.


e:-----------------X-------X------|
B:-----------------X-------X------|
G:-(7)--------7777-X-77777-X-7777-|
D:-(X)--------XXXX-X-XXXXX-X-XXXX-|
A:-(5)--------5555-X-55555-X-5555-|
E:-(0)-------------X-------X------|



BRIDGE 1

 strum      long wait     pull string down slightly

e:----------------------------------------------|
B:----------------------------------------------|
G:----------------------------19-19-19-19-19-19-|
D:-0-2-0----------------------------------------|
A:-0-3-0----------------------------------------|
E:-0-2-0----------------------------------------|


RIFF 1				FILL (play this in place of section F)
		F	  F
e:--------------------------|   |-------------|
B:--------------------------|   |-------------|
G:--------------------------|   |-------------|
D:--------------------------|   |-----2-3 3-5-|  
A:------3---2-3---3-5-0-3-2-|   |-3-5---------|
E:0-0-0---0-----0-3-5-0-3-2-|   |-------------|
	        F         F


BRIDGE 2

D:-12-12-12-12-12-12-12-12-12-12-|


[ Tab from: http://www.guitartabs.cc/tabs/r/rage_against_the_machine/wake_up_tab_ver_6.html ]
RIFF 2			FILL 			FILL 2 (x 3)
			
e:-----------------|	|-----------------|	|-------------|
B:-----------------|	|--10-10-10-10-10-|	|-------------|
G:-----------------|	|--10-10-10-10-10-|	|-------------|
D:-----3---5-------|	|--10-10-10-10-10-|	|-------------|
A:-3-5---5---3-3-4-|	|--8--8--8--8--8--|	|-12h15p12h15-|
E:-----------------|	|-----------------|	|-------------|


BRIDGE 3

e:-------------|
B:-------------|
G:-------17-19-|
D:-------------|
A:-15-17-------|
E:-------------|


SOLO x2

e:-------------------------------------|
B:---------5-6---8---6-5--------5-6----|
G:-7-7-7-7----------------5-5--------7-|
D:-------------------------------------|
A:-------------------------------------|
E:-------------------------------------|


BRIDGE 4			(continues staggering to a rhythm)

e:-----------------------------------------------------------------|
B:-----------------------------------------------------------------|
G:-----------------------------------------------------------------|
D:-XXXXX0-XXXXX3-XXXXX0-XXXXX3---XXXXXXXXXXXXXXXXXXXXXXXXXXXXXXXXX-|
A:-XXXXX0-XXXXX3-XXXXX0-XXXXX3---XXXXXXXXXXXXXXXXXXXXXXXXXXXXXXXXX-|
E:-XXXXX0-XXXXX3-XXXXX0-XXXXX3---XXXXXXXXXXXXXXXXXXXXXXXXXXXXXXXXX-|

|--------------------------------------------------------|
|----------------------------------------------------XXX-|
|----------------------------------------------------XXX-|
|----------------------------------------------------XXX-|
|----------------------------------------------------XXX-|
|-0-3-5-0-3-5-0-3-5-0-3-5--X-X-X-X-X-X-X-X-----------XXX-|
(not exactly numbered)


BRIDGE 5
    x6	      x1
e:-----------|---|
B:-----------|---|
G:-----0-----|---|
D:-----2-----|---|
A:-0---3-----|-0-|
E:-0---0-----|-0-|


OUTRO

kind wiggle back and forth on fret

G:-17-|


Here's how it's all set up.

INTRO
BRIDGE 1
RIFF 1
BRIDGE 2
RIFF 2 (verse, 1st fill at "department")
RIFF 1
BRIDGE 3
RIFF 2 (verse, 2nd fill at "murals")
SOLO
BRIDGE 4
INTRO (again)
BRIDGE 1 (screaching part)
BRIDGE 5 (whispering)
BRIDGE 1 (screaching part)
RIFF 1 ("WAAAAAKE UUUP!")
SECOND SOLO (not tabbed)
OUTRO

that's it!
Comments